» » Genesis - Cinema Show аккорды

Genesis - Cinema Show аккорды

Genesis - Cinema Show аккорды и слова для гитары. Другие песни с аккордами исполнителя Genesis.

e|--14----------------------------12-14-15-14-17-14---|
b|-----15-12-------------12-13-15---------------------|
g|-----------12-11-12-14------------------------------|
d|----------------------------------------------------|
a|----------------------------------------------------|
e|----------------------------------------------------|

e|-15-12-----------------------------------------------|
b|-------13-----------------12-13--------------12------|
g|-----------------------12-------12p11-12p11--12------|
d|-----------------12h14---------------------------12~-|
a|-----------------------------------------------------|
e|-----------------------------------------------------|

e|---------------------------------------------------------|
b|-------------------------12h13h15--15p13p12--------------|
g|---------------12h14h16----------------------14p12p11h12-|
d|-12--12h14h16--------------------------------------------|
a|---------------------------------------------------------|
e|---------------------------------------------------------|

e|-15b17r---------------------------|
b|---------12-~---------------------|
g|--------------14p12p11------------|
d|------------------------12--10p9~-|
a|----------------------------------|
e|----------------------------------|

Genesis - Cinema Show клип