» » Verve - Catching The Butterfly аккорды

Verve - Catching The Butterfly аккорды

Verve - Catching The Butterfly аккорды и слова для гитары. Другие песни с аккордами исполнителя Verve.

Альбом: Urban Hymns

Песня начинается с бас вступления:

Вервы используют какой то органный звук и он нампоминает дыхание (супер клево!)

G-----------------------|
D|----5h7---5h7--5--7--5--7----| эта часть повторяется бас гитарой всю песню
A-----------------------|
E|---5------------------------------|

Соло гитарист использует какой-то sustain effect который очень напоминает  E-bow. Точно эффект подобрать я не смог, но используя WAH педаль получается очень похоже. Поставь уровень эффекта на миннимум. Вот интро соло гитары:

E--------------------|--------|
B--------------------|--------|
G--------------------|--------|
D|---11------------(7)----------|---7----|
A--------------------|--------|
E--------------------|--------|

И основная мелодия:
E---------------------|
B---------------------|
G---------------------|
D|-11------9---12-----|--9--11--7--9--(7---9)-|
A|(0)=====-----(0)====|-(0)=====--------------|
E|-9-------7---10-----|--7--9---5--7--(5---3)-|

Немного приглуши открытую A но пусть она звенит

Во время куплетов гитара повторяет голос. Вторая гитара импровизирует на аккорде A барре. А припев играется вот так:

A
I´m gonna keep catching the butterfly in that
E|-X-----X------------------|---X-----X----------------|
B|-X-----X------------------|---X-----X----------------|
G|-6--X--6------------------|4--X--4--X--4-X--4--X--4--|
D|-7--X--7-X-7--X-7---X--7--|5--X--5--X--5-X--5--X--5--|
A|-7--X--7--X-7--X-7--X--7--|5--X--5--X--5-X--5--X--5--|
E|-5--X--5----5--X-5--X--5--|3--X--3--X--3-X--3--X--3--|

dream of mine.
E---------------------------|
B---------------------------|
G---------------------------|
D|--4---X--4---X--4--X--4(--2)---------|
A|--5---X--5---X--5--X--5---------------|
E|--2---X--2---X--2--X--2(--0-)--------|

1-я вставка соло гитары:
E-----------------------------|
B-----------------------------|
G-7------7--6----------------|
D|----7-/-9---9---9----------7-----|----------5h7-----|
A----------------------|---5-h-7----------|
E-----------------------------|

2-я вставка:
E------------------------------|
B-------------------------------|
G-------------------------------|
D|----7h9h7h9h7--5h7h5h7h5----|--4h5h4h5h4---2h4h2h4h2--|
A------------------------------4|
E-------------------------------|

3-я вставка припева:
E|----------0----------|---------0--------0--------0-----|
B|--8---8--------10----|----8--------10-------12------10-|
G|--X7---------------------------------------|
D--------------------------------|
A--------------------------------|
E--------------------------------|

Соло
E--------------------------|
B--------------------------|
G--------------------------|
D|-7--9--10--9--10--7----|--7--9--10--9-----10----7-|
A|-0====-----------------|--7-----------------------|
E|-5--7--8---7---8--5----|--5--7---8--7------8----5-|

Потом гитара играет следующее с фэйзером:
E---------------------------|
B---------------------------|
G|-12b(14)--b14--b14-b14-14(12)-|
D----------------------------|
A---------------------------|
E---------------------------|

А сейчас все соединим вместе

1 Куплет:

So you were born and so you saw
The beauty´s eyes to keep and hold
Oh child within has healing ways
It sees me through my darkest days

припев:

I´m gonna keep catching the butterfly
in that dream of mine
. I´m gonna keep catching the butterfly
in that dream of mine.
In my lucid dreams
In my lucid dreams

2 Куплет:

Something known through life no fun
I wanna feel, I wanna run

припев:

I´m gonna keep catching the butterfly
in that dream of mine. * (вставка 1) (x2)
In my lucid dreams
In my lucid dreams

(Соло)

припев:

I´m gonna keep catching the butterfly
in that dream of mine.
Keep catching the butterfly
in that dream of mine. *(вставка 2)
I´m gonna keep catching the butterfly
in that dream of mine. * (вставка 3)

Выход:

My darkest dreams
My darkest dreams
My lucid dreams
My forgotten schemes
My lucid dreams
My forgotten schemes
I see through you,
You see through me...
Belive in me..
To be in the light...


Ну вот и все
Я не подбирал каждую ноту потому что большинство песни- импровизация   поэтому песня
такая клевая
Удачи

Элвис

Verve - Catching The Butterfly клип