» » Tiamat - For Her Pleasure аккорды

Tiamat - For Her Pleasure аккорды

Tiamat - For Her Pleasure аккорды и слова для гитары. Другие песни с аккордами исполнителя Tiamat.

[E-------------------------------------------------------------------------
B-------------------------------------------------------------------------
G-------------------------------------------------------------------------
D-----14---146-6~~~~----------6~~~~~~---14---146-6~~~~~-----------------
A--------------------9-9-9--7~~--------------------------9-9-9--7-6-7-6-7-
E-------------------------------------------------------------------------

E-------------------------------------------------------------------------
B-------------------------------------------------------------------------
G-------------------------------------------------------------------------
D-----14---146-6~~~~----------6~~~~~~---14---146-6~~~~~-----------------
A--------------------9-9-9--7~~--------------------------9-9-9--7-6-7-6-7-
E-------------------------------------------------------------------------

E-------------------------------------------------------------------------
B-------------------------------------------------------------------------
G-6---6---6----------------------------6---6--6-------------------2-2-----
D-6---6---6-2-2-----4--4--4-4--6-------6---6--6-2-2-----4--4--4-2-2-2-----
A-4---4---4-2-2-----4--4--4-4--6-------4---4--4-2-2-----4--4--4-2-0-0-----
E-----------0-0-----2--2--2-2--4----------------0-0-----2--2--2-0---------]

I'm not sure about this part of the song.
It could be the same as above.

[E-------------------------------------------------------------------------
B-------------------------------------------------------------------------
G-6---6---6---------------------------6---6---6---4----6--6--6----2-2-----
D-6---6---6-2-2----4--4--4--4-6-------6---6---6-4-4----6--6--6-2--2-2-----
A-4---4---4-2-2----4--4--4--4-6-------4---4---4-4-2----4--4--4-2--0-0-----
E-----------0-0----2--2--2--2-4-----------------2--------------0----------

E-------------------------------------------------------------------------
B-------------------------------------------------------------------------
G-------------------------------------------------------------------------
D--11--14--14--11--11--13--13--11--11--14--14--11-------11--11------------
A--------------------------------------------------11---------------------
E-------------------------------------------------------------------------]

Tiamat - For Her Pleasure клип