» » Venom - Red Light Fever аккорды

Venom - Red Light Fever аккорды

Venom - Red Light Fever аккорды и слова для гитары. Другие песни с аккордами исполнителя Venom.

                     VENOM - RED LIGHT FEVER
From the Album WELCOME TO HELL
Copyright 1981 - NEAT RECORDS
Version 1.0 - (APR. - 2001)

Transcribed by: ВJШRN

For Questions, Comments, Newest Version, or Corrections contact
[email protected]

Check Out Death Warp, With More Transcriptions On It:
https://www.wam.umd.edu/~ekubica

..  - palm mute          /  - slide up to
- slide down to      ~  - vibrato
h  - hammer on          b  - bend
p  - pull off            Suffixes for bend
ph - pinch harmonic
f - full bend    h - half bend
*  - see comment           r - release      t - tap bend
X  - percussion mute       ~ - vibrato bend
@  - slight palm mute     () - ghost note, sustained note

Tune Gtr to C#


Riff A
|--------------------------------------------------------|
|--------------------------------------------------------|
|--------------------------------------------------------|
|--------------------------------------------------------|
|--22222222222222222222222222222222222222222222222-------|
|--00000000000000000000000000000000000000000000000-------|
Riff B
|-----------------------------------|
|-----------------------------------|
|-----------------------------------|
|-----------------------------------|
|--2-------------2---------5--------|
|--0-0-0-0-0-5b--0-0-0-0-0-3--------|

Riff C
|-----------------------------------|
|-----------------------------------|
|-----------------------------------|
|-----------------------------------|
|--2---5---7---8---7---5---2--------|
|--0-0-3-0-5-0-6-0-5-0-3-0-0--------|

Riff D
|------------------------------|
|------------------------------|
|------------------------------|
|------------------------------|
|------------------------------|
|--0000-0000-0000-0000---------|

Riff E
|--------------------------------------------------|
|--------------------------------------------------|
|--5--2---4-------5--2---4-------------------------|
|--5--2---4--4----5--2---4--4----5--------5--------|
|--3--0---2--4----3--0---2--4----5--2-2-2-5--------|
|------------2--------------2----3--0-0-0-3--------|

Riff F
|-------------------------|
|-------------------------|
|-------------------------|
|-------------------------|
|--------------5-5--------|
|--0-0-0-0-2~--3-3--------|

Riff G
|-----------------|-------------------------------------------|
|-----------------|-------------------------------------------|
|-----------------|-------------------------------------------|
|-----------------|-------------------------------------------|
|--2--2-4--4-5----|--5-4-2-2-2-2-2-2--5-4-2-2-2-2-2-2---------|
|--0--0-2--2-3----|--3-2-0-0-0-0-0-0--3-2-0-0-0-0-0-0---------|

Venom - Red Light Fever клип