» » Testament - Burning Times аккорды

Testament - Burning Times аккорды

Testament - Burning Times аккорды и слова для гитары. Другие песни с аккордами исполнителя Testament.

Burning times
-------------

Artist: Testament
Title: Burning Times
Album: Demonic
Transcribed by: Nikhil Nair
Email: [email protected]



Drop 6th string 1 step from E to D

. = palm mute
/ = slide up             = slide down
b = bend                r = relese bend
h = hammer on           p = pull off
= natural hormonic

-|--   --|-
-|--   --|-
-|*-   -*|-
-|*-   -*|-  = repeat
-|--   --|-
-|--   --|-

Intro:
e|-------------------------------|------------------------------------|
B|-------------------------------|------------------------------------|
G|-------------------------------|------------------------------------|
D|--------------------------7--6-|-------------------------------7--6-|
A|-0-----------------0------7--6-|-0----5b6r5b6r5b6r5b6r5-0------7--6-|
D|-0-----------------0-----------|-0----------------------0-----------|


-|--------------------------------------|
-|--------------------------------------|
-|--------------------------------------|
-|--------------------------------------|
-|-5---------5---------7-----6----------|
-|-5--0-0-0--5--0-0-0--7-7-7-6--6-0-0-0-|
. . .     . . .    . .    . . . .

-|---------------------------------------------|
-|---------------------------------------------|
-|---------------------------------------------|
-|---------------------------------------------|
-|-6---------6---------------------------------|
-|-6--0-0-0--6--0-0-0--1210/1210/1210/1210-|
. . .     . . .

-|---------------------------------------|------------------------------------|
-|---------------------------------------|------------------------------------|
-|---------------------------------------|------------------------------------|
-|---------------------------------------|---------------------5--3--5--6----|
-|-5---------5---------------------------|---------------------5--3--5--6----|
-|-5--0-0-0--5--0-0-0--7--7--7--10--7--6-|-7--0-0-0--7--0-0-0--5--3--5--6-7-|
. . .     . . .                         . . .     . . .

-|------------------------------------------|
-|------------------------------------------|
-|------------------------------------------|
-|------------------------------------------|
-|-5---------5------------------------------|
-|-5--0-0-0--5--0-0-0--0--7-7--6--5--3-3--5-|
|    . . .     . . .                       | 2 guitars
-|-----------17-------16-----15h16p15---13-|
-|-15---------------------------------------|
-|------------------------------------------| 

Testament - Burning Times клип