» » Tiamat - Deeper Kind Of Slumber аккорды

Tiamat - Deeper Kind Of Slumber аккорды

Tiamat - Deeper Kind Of Slumber аккорды и слова для гитары. Другие песни с аккордами исполнителя Tiamat.

  TAB by Thirdeye


E----
B----
G|------0------0-
D|----6------6---
A|--8------8-----
E----

E-----
B-----
G|-------0-----0--
D|-----8-----8----
A|--6------6------
E-----

E-----
B-----
G|------0------0--
D|----8------8----
A|--7------7------
E-----

Tiamat - Deeper Kind Of Slumber клип