» » Vlad Golubev - Отпусти аккорды

Vlad Golubev - Отпусти аккорды

Vlad Golubev - Отпусти аккорды и слова для гитары. Другие песни с аккордами исполнителя Vlad Golubev.

Куплет 1:
E--------------------------------0--------
B--------5----------0--------1------1-----
G--------------------------------------0--
D------5---------0--------2---------------
A--3---------2---------0------------------
E-----------------------------------------
Знаешь как легко понять

E--------------------------------0--------
B--------5----------0--------1------1-----
G--------------------------------------0--
D------5---------0--------2---------------
A--3---------2---------0------------------
E-----------------------------------------
Если хочешь потерять

---------------------------------0--------
----------0----------0--------1-----1-----
---------------------------------------0--
------5----------4---------2--------------
--3---------2-----------0-----------------
------------------------------------------
Просто лучше отпусти

------------------------------3------------
-----------5----------4-------5------------
------------------------------5------------
--------5-----------4---------5------------
---3------------2-------------3------------
------------------------------3------------
Если счастья нет в любви

Припев:
C      D        G
Значит просто не нашли
C      D         F#7
Мы еще свое здесь счастье
C      D    B7    Em
Не ругайся просто отпусти
Am7  Dsus4 D     G
И не плачь если можешь прости
C      D        G
Значит просто не нашли
C      D         F#7
Мы еще свое здесь счастье
C      D    B7    Em
Не ругайся просто смотри
Am7  Dsus4 D     G
Как любовь теряем мы снова

Куплет 2:
Будут дни опять лететь
Будем мы с тобой смотреть
На других и думать заново начать
Если снова все простить

Vlad Golubev - Отпусти клип