» » Thursday - Understanding In A Car Crash Live аккорды

Thursday - Understanding In A Car Crash Live аккорды

Thursday - Understanding In A Car Crash Live аккорды и слова для гитары. Другие песни с аккордами исполнителя Thursday.

thursday----five stories falling
**understanding in a car crash-live version
submitted [email protected]

intro-*chorus*--x4
e|---------------------------------------------------------------
b|---------5-0-0-------5-0-0--------------5-0-0-------5-0-0------
g|---5-0-0-------5-0-0-------5-0----5-0-0-------5-0-0-------5-0--
d|77-----------------------------33------------------------------
a|---------------------------------------------------------------
e|---------------------------------------------------------------

(A)verse-1
e|---------------------------------------------------------------
b|------8----------------------5---------------------------------
g|--5-------7-8-7--5-4-----3-------5-4-5-------------------------
d|7---7---7--------------5---5---5-------------------------------
a|---------------------------------------------------------------
e|---------------------------------------------------------------

*4th time right before chorus---crash my car everyday the....
e|----------------------15-------15-------15-------15--------
b|-------------------------12-13----12-13----12-13----12-13--

**chorus-------------

verse-2
e|------------10-10-10-10-10--------------------------------
b|--5---5---8--7--7--7--7--7--(x4)-then into verse 1-twice--
g|-5-5-5-5-5-5-5--5--5--5--5--------------------------------

(b) then leads into---
e|----------------------------------------------------------
b|-88888888-55555555--5-5-5-5--3-3-3--0-0------------
g|-55555555-55555555-5-5-5-5--5-5-5-5--5-5-------------

**chorus--------------

verse-3
e|------------10-10-10-10-10---------------------------------
b|--5---5---8--7--7--7--7--7--(x4)---------------------------
g|-5-5-5-5-5-5-5--5--5--5--5---------------------------------

then......
e|-----------------------------------------------------------
b|-----------------------------------------------------------
g|-----------------------------------------------------------
d|-77777777-99999999-1010101010101010-1212121212121212-(x2)--
a|-55555555-77777777--8-8-8-8-8-8-8-8-1111111111111111-------
e|-----------------------------------------------------------

then......

e|--15-------(x8)--------------------------------------------
b|-----12-13-------------------------------------------------

then......
e|-----------------------------------------------------------
b|-----------------------------------------------------------
g|-----------------------------------------------------------
d|-77777777-99999999-1010101010101010-77777777-(x2)----------
a|-55555555-77777777--8-8-8-8-8-8-8-8-55555555---------------
e|-----------------------------------------------------------

**then.....
e|-----------------------------------------------------------
b|-----------------------------------------------------------
g|-----------------------------------------------------------
d|-77777777-99999999-1010101010101010-1212121212121212-(x2_--
a|-55555555-77777777--8-8-8-8-8-8-8-8-1111111111111111-------
e|-----------------------------------------------------------

then......
e|-15-------}really fast---then slow once--15-------
b|----12-13-}----(x15)------------------------12-13-
then twice fast..once slow... then finish fast

outro..solo
e|----------------------------------------------------15-13-12-----
b|-12-12-10-10-9-9-10-10-(x2)---12-13-15-15-13-12--12-----------(x2)

its a really cool songand sounds really cool live!!

Thursday - Understanding In A Car Crash Live клип