» » Venom - Stand Up аккорды

Venom - Stand Up аккорды

Venom - Stand Up аккорды и слова для гитары. Другие песни с аккордами исполнителя Venom.

---------------------------------------------------
Stand up(and be counted!) by Venom
---------------------------------------------------

tabbed by endre bakken stovner ( [email protected] )


intro


G|--------------------------------------------
D|--------------------------------------------
A|--------------------2---2-4-----2---2-4-----
E|3-4-5-0-4-3-4-5-0-4---4-----3-4---4---------

G|--------------------------------------------
D|--------------------------------------------
A|------2---2-4-----2---2-4-------2-2-4-2-----
E|5-0-4---4-----3-4---4-----5-0-4---------4---

verse

G|---------------------------------------------------------
D|---------------------------------------------------------
A|-----2-2-4-2--------2-2-4-2-------2-2-4-2-----2-2-4-2----
E|4x-4---------4-2x-4---------4-0-4---------4-4---------4-4

chorus

G|-----------------------
D|1-----------1----------
A|-----------------------
E|--3x-2-5-1x---3x-2-5-1-

bridge

G|--------------------------------------------------
D|----4-6-4-------4-6-4-------4-6-4-------4-6-4-----
A|6-6-------6-6-6-------6-6-6-------6-6-6-------6-5x
E|--------------------------------------------------

G|-----------------------------
D|-----------------------------
A|2x-1-2-1-0x------------------
E|------------4-5-4x-5-4x-5-4x-

outro

G|-----------------------------
D|-----------------------------
A|-----------------------------
E|4-4-4-5-0-4-4-4-5-0----------

x=play a this lot of times

if you notice any mistakes just email me

Venom - Stand Up клип