» » The Beatles - The End аккорды

The Beatles - The End аккорды

The Beatles - The End аккорды и слова для гитары. Другие песни с аккордами исполнителя The Beatles.

   A  D   B   E
-|--5---10----7----12----
-|--5---10----7----12----
-|--2---7-----4----9-----
-|--2---7-----4----9-----
-|-----------------------
-|-----------------------
Oh Yeah All Right

A                Ebdim    A
-|-----------------------------------------------
-|-----------------------------------------------
-|-----------------------------------------------
-|-----------------------------------------------
-|-----------4--5--6--7---8---9----9--7--4-------
-|---5-------5--7--8--9--10--11---10--8--5-------
Are you gon na be in my dreams   to night

A7  A    D7  D7
-|--0----0------2----2---------
-|--2----2------1----1---------
-|--0----2------2----2---------
-|--2----2------0----0---------  (repeat six times)
-|--0----0---------------------
-|-----------------------------
Love You   Love You

The leads: Make sure to change your tone completely from
line to line so you sound like three different guys ;^)

A7   A        D7
-|--------------5-----5--3------------------------------------
-|--5--5--5--5-----5--------3/1-----3--1----------------------
-|-------------------------------2--------2--0----------------
-|------------------------------------------------------------
-|------------------------------------------------------------
-|------------------------------------------------------------

A7 A         D7
-|-----------------------------------------------------------------------
-|----------------b(13)11--11h13p11--------------------------------------
-|--12h14--12h14---------------------12--12--12--------------------------
-|-----------------------------------------------14--14--12--12----------
-|---------------------------------------------------------------15--12--
-|-----------------------------------------------------------------------

A7            A                D7
-|--------------------------------------------------------- (this is
-|--12--14--14--14--12--14--14--14--12--14--14--14--12-----  the best
-|--12--14--14--14--12--14--14--14--12--14--14--14--12-----  I got for
-|--12--14--14--14--12--14--14--14--12--14--14--14--12-----  this part!
-|---------------------------------------------------------  So sue me!)
-|---------------------------------------------------------

A7     A         D7
-|--8--8--8--8---------------------------------------------
-|--------------5-----------5--4--5--------------11b(13)---
-|-----------------5-----5-----------14--12--14------------
-|--------------------7------------------------------------
-|---------------------------------------------------------
-|---------------------------------------------------------

A       A7             D7
-|------------------------------------------------------------5--
-|--------5--5--------5--5-----5--5-----5--7b(9)r7--5h7p5--------
-|--------5--5--------5--5-----5--5-----5--7b(9)r7--5h7p5--------
-|--7--7--------7--7--------7--------7---------------------7-----
-|---------------------------------------------------------------
-|---------------------------------------------------------------
-|---------------------------------------------------------------
-|---------------------------------------------------------------

A   A7  D7
-|---------------------------------------------------------------
-|---------------------------------------------------------------
-|---------------------------------------------------------------
-|---------------------------------------------------------------
-|-----------3--5--3--5--3--5--3--b(7)5--5--3--5-----------------
-|--0--3--5------------------------------------------------------

A         A7    D7
-|-------------------------------------------------------------------
-|-------------------------------------------------------------------
-|--------------5--5--5--5--------------5--5--5--5-------------------
-|--5--5--5--5--------------5--5--5--5--------------75--------------
-|-------------------------------------------------------75--3--0---
-|-------------------------------------------------------------------

A     A7    D7
-|-----------------15b(17)--15-----------------------------------
-|--5/8--8/10--13---------------13--15--13-----------------------
-|---------------------------------------------------------------
-|---------------------------------------------------------------
-|---------------------------------------------------------------
-|---------------------------------------------------------------

A   A7       D7           A
-|---------------------------------------------------------------
-|-----------7--7--7--7--7--7--7--7--7--7--7--7--5---------------
-|-----------7--7--7--7--7--7--7--7--7--7--7--7--6--------------- (sue me
-|-----5--7--7--7--7--7--7--7--7--7--7--7--7--7--7---------------  again!)
-|--7------------------------------------------------------------
-|---------------------------------------------------------------

The Beatles - The End клип