» » Tiamat - Alternation x10 аккорды

Tiamat - Alternation x10 аккорды

Tiamat - Alternation x10 аккорды и слова для гитары. Другие песни с аккордами исполнителя Tiamat.

Intro
E--------------------------------------0----------
B|------0--------------0-------------0---------------0--------
G|--------0--------------0-------------0---------------0------
D|----------0--------------0-------2-----0-------0-------0----
A|----2-------2------2-------2---0---------0---2--------------
E|--0--------------3------------------------------------------

CHORUS:
"...Centrifuge..."
E---------------------------------------------
B---------------------------------------------
G---------------------------------------------
D|--2--2-2-2-2-2--5--5-5-5-5-5--7--7-7-7-7-7--9-9-9-9-9-9-
A|--2--2-2-2-2-2--5--5-5-5-5-5--7--7-7-7-7-7--9-9-9-9-9-9-
E|--0--0-0-0-0-0--3--3-3-3-3-3--5--5-5-5-5-5--7-7-7-7-7-7-

Tiamat - Alternation x10 клип