» » Venom - The Evil One аккорды

Venom - The Evil One аккорды

Venom - The Evil One аккорды и слова для гитары. Другие песни с аккордами исполнителя Venom.

                    VENOM - THE EVIL ONE
From the Album CAST IN STONE
Copyright 1997 - SPV RECORDS
Version 1.0 - (APR. - 2001)

Transcribed by: ВJШRN

For Questions, Comments, Newest Version, or Corrections contact
[email protected]

Check Out Death Warp, With More Transcriptions On It:
https://www.wam.umd.edu/~ekubica

..  - palm mute          /  - slide up to
- slide down to      ~  - vibrato
h  - hammer on          b  - bend
p  - pull off            Suffixes for bend
ph - pinch harmonic
f - full bend    h - half bend
*  - see comment           r - release      t - tap bend
X  - percussion mute       ~ - vibrato bend
@  - slight palm mute     () - ghost note, sustained note

Tune Gtr to C#


Riff A
|---------------------------------------|
|---------------------------------------|
|---------------------------------------|
|---------------------------------------|
|--7-5---5------------------------------|
|------7---7-6-5-3-5-4-3-1-3-2-1--------|

Riff B
|--------------------------------------------------------------------|
|--------------------------------------------------------------------|
|--------------------------------------------------------------------|
|--------------------------------------------------------------------|
|--3p2-2-2-2-2-2-2-3p2-2-2-2-2-2-2-3p2-2-2-2-2-2-2-3p-2--2-2---------|
|--1p0-0-0-0-0-0-0-1p0-0-0-0-0-0-0-1p0-0-0-0-0-0-0-1p-0--0-0-3-------|

Riff C
|--------------------------------------|
|--------------------------------------|
|--9----------------9------------------|
|--9--8-------------9--8---------------|
|--7--8-------------7--8--8-8-8-8------|
|-----6--6-7-7-6-5-----6--6-6-6-6------|

Riff D
|--------------------------------------------------|
|--------------------------------------------------|
|--11---------------11-----------------------------|
|--11-10------------11-10------11-10-9ph-----------|
|--9--10-10101010---9--10-9-11---------------------|
|-----8--8-8-8-8-------8---------------------------|

Riff E
|----------------------------------------|
|----------------------------------------|
|----------------------------------------|
|----------------------------------------|
|----------------------------------------|
|--0-2-3-0-2-3-0-2-3-5-3-2-5-3-2-3-------|

Riff F
|--------------------------------------------------------------------|
|--------------------------------------------------------------------|
|--9/---------------------------9/-----------------------------------|
|--9/---------------------------9/-----------------------------------|
|--7/---------------------------7/-----------------------------------|
|-----0-0-0-0--0-0-0-0--0-0-0-0----0-0-0-0--0-0-0-0--0-0-0-0---------|

Venom - The Evil One клип