» » The Beatles - Dear Prudence аккорды

The Beatles - Dear Prudence аккорды

The Beatles - Dear Prudence аккорды и слова для гитары. Другие песни с аккордами исполнителя The Beatles.

E|2------------|
B|--------3----|
G|----2--------|
D|--0--------0-|
A|0------------|
D|------0------| (using D chord below)

Intro and Fade Out    Melody (repeats) Won`t you come ou
E|--14-12-10-8--7--5--3--3-|-2--2--2--2--2--| |--0--3--2--|
B|--12-10-10-8--8--7--5--5-|-3--3--3--3--3--| |--1--0--3--|
G|--14-12-11-9--7--7--5--4-|-2--2--2--2--2--| |--0--0--2--|
D|--0--0--0--0--0--0--0--0-|-0--0--0--0--0--| |--2--0--0--|
A|--0--0--0--0--0--0--0--0-|-0--3--2--1--0--| |--3--2--0--|
D|--0--0--0--0--0--0--0--0-|-0--0--0--0--0--| |--0--0--0--|

Look around.......
E|--1--4--3-----|
B|--1--4--3-----|
G|--2--5--4-----|
D|--0--0--0-----|
A|--0--0--0-----|
D|--0--0--0-----|

"We are living in a stochastic house,
with the shades drawn and the windows up high..."

The Beatles - Dear Prudence клип