» » White Stripes - Fell In Love With A Girl аккорды

White Stripes - Fell In Love With A Girl аккорды

White Stripes - Fell In Love With A Girl аккорды и слова для гитары. Другие песни с аккордами исполнителя White Stripes.

White Stripes
Fell In Love With A Girl
White Blood Cells
Tabbed By Paul 6/8/02


Fig. A
E---------------------------------------------------------
B---------------------------------------------------------
G---------------------------------------------------------
D-4--4-4-4-4-4------------------7--7-7-7-7-7--2--2-2-2-2-2
A-2--2-2-2-2-2---7--7-7-7-7-7---5--5-5-5-5-5--2--2-2-2-2-2
E----------------5--5-5-5-5-5-----------------------------

Fig. B
E---------------------------------------------------------
B---------------------------------------------------------
G---------------------------------------------------------
D-------------------------------7--7-7-7-7-7--2--2-2-2-2-2
A-4--4-4-4-4-4---7--7-7-7-7-7---5--5-5-5-5-5--2--2-2-2-2-2
E-2--2-2-2-2-2---5--5-5-5-5-5-----------------------------

Fig. C END
E---------------------------------------------------------
B---------------------------------------------------------
G---------------------------------------------------------
D-4-------------------------------------------------------
A-2-------------------------------------------------------
E---------------------------------------------------------

Fig. A 3X
Fig. B 2X
Stop
Fig. A 2X
Fig. B 3X
Stop
Fig. A 2X
Fig. B 2X
Stop
Fig. A 2X
Fig. B 2X
Stop
Fig. A 2X
Fig. B 2X
Fig. C 1X

White Stripes - Fell In Love With A Girl клип