» » Pink Floyd - Time аккорды

Pink Floyd - Time аккорды

Pink Floyd - Time аккорды и слова для гитары. Другие песни с аккордами исполнителя Pink Floyd.

Verse: (w/ distortion)
F#m                                       A Asus4 A
Ticking away, the moments that make up a dull day

Lead I
--------------------------------------
----2----------2--------2-------------
---4>(6)======(6)=4--2--2-------------
----------------------------2vvvvv----
--------------------------------------
--------------------------------------

E                                           F#m
You fritter and waste the hours in an offhand way

Lead II
---7/9--9--97--7---
---------------------
---7/9--9--97--7---
---------------------
---------------------
---------------------
A
Kicking around on a piece of ground in your home town
E                                               F#m
Waiting for someone or something to show you the way.

Dmaj7                           Amaj7
Tired of lying in the sunshine, staying home to watch the rain,
Dmaj7                           Amaj7
You are young, and life is long, and there is time to kill today,
Dmaj7                       C#m7
And then one day you find, ten years have got behind you
Bm7                           E
No one told you where to run, you missed the starting gun.

Solo: To get the solo to sound like Pink Floyd you should use Delay with some sustain.
e|--------------------------------------------------------------------------
B|--------------------------------------------------------------------------
G|---------------------------------4>(6)======>(5)===>(6)vvvvvvvv>(5)>(6)---
D|----2>4vvvvvvvvvvvvvvvv---------------------------------------------------
A|--------------------------------------------------------------------------
E|--------------------------------------------------------------------------


e|-------------------------------------------------
B|-------------------------------------------------
G|---44>2---4>(6)--4vvvvvvvvvvvvvvv----
D|-------------------------------------------------
A|-------------------------------------------------
E|-------------------------------------------------

e|---------------------------------------------5>(6)----------------
B|------------------------------5-5>7>5>7>5>7------------7vvvvvv----
G|------------------------/6----------------------------------------
D|--44vvvvvv-----------------------------------------------
A|------------------------------------------------------------------
E|------------------------------------------------------------------

e|---------------------------------------------9--9---9--9>(10)======>9--
B|-----------------------------------------------------------------------
G|---4>(6)==========>4>2-----4>(6)------6/9----9--9---9------------------
D|-----------------------------------------------------------------------
A|-----------------------------------------------------------------------
E|-----------------------------------------------------------------------

e|-------------------------------------------------------------------------------
B|--10>(12)==========>10----9vvvvvvv--9>(10)=====>9------------------------------
G|-----------------------------------------------------9>(10)==>(11)==========>9-
D|-------------------------------------------------------------------------------
A|-------------------------------------------------------------------------------
E|-------------------------------------------------------------------------------

e|----------------------------------17----------------------------------
B|----------14---17>(19)----17>(19)-----17>(19)==========>17---17>(19)--
G|------14--------------------------------------------------------------
D|--/16-----------------------------------------------------------------
A|----------------------------------------------------------------------
E|----------------------------------------------------------------------

e|--------------------------------------------------------------------------
B|--17----------------------------------------------------------------------
G|-------16>(18)vvvvvvv--16>(19)>16>(18)vvvv---16>(18)==========>16vvvvvvv--
D|--------------------------------------------------------------------------
A|--------------------------------------------------------------------------
E|--------------------------------------------------------------------------

e|--------------------------------------------------17>(19)-----17>(19)=====>17-
B|--------15--15---14>(15)>14-------------------14------------------------------
G|----16------------------------14----------------------------------------------
D|----------------------------------16vvvvvvv-----------------------------------
A|------------------------------------------------------------------------------
E|------------------------------------------------------------------------------

e|----------------------------------------------------------------------------
B|----17>(19)vvvvvvvvvvvvv----(19)>17--17vvvv---------------------------------
G|----------------------------------------------(17)>16>14--14---16>(18)vvvv--
D|----------------------------------------------------------------------------
A|----------------------------------------------------------------------------
E|----------------------------------------------------------------------------

e|---19>(21)===>19--19>(21)=====>19--19vvvvvvv----
B|------------------------------------------------
G|------------------------------------------------
D|------------------------------------------------
A|------------------------------------------------
E|------------------------------------------------

e|---16----------------------------------------------------
B|-------17--------17/19vvvvvv---17>19>17---1714vvvvvvvvv--
G|-----------16--------------------------------------------
D|---------------------------------------------------------
A|---------------------------------------------------------
E|---------------------------------------------------------

This begins where the rhythm changes to the progression that plays over the
chorus (begins with Dmaj7)
e|----------------------------------------------------------
B|----------7---10/12--10vvvvv---9--10---9>10>9>75vvvvvv----
G|-----2/7--------------------------------------------------
D|--4-------------------------------------------------------
A|----------------------------------------------------------
E|----------------------------------------------------------

e|-------------------------------------------------------------
B|--7/9---9----75-----52/5-----2---2---------------------------
G|----------------------------------4>(6)======vvvv>4--4>(7)---
D|-------------------------------------------------------------
A|-------------------------------------------------------------
E|-------------------------------------------------------------

e|-------------------------------------------------------------------
B|-------------------------------------------------------------------
G|--(6)======>4--------(6)========>4>2>4>2vvvvvv--4>(6)=========>4---
D|-------------------------------------------------------------------
A|-------------------------------------------------------------------
E|-------------------------------------------------------------------

e|-------------------------------------------------------------------
B|-------------------------------------------------------------------
G|----4vvvvvvvvvvvv-----2vvvvvvvvvvvv--------4-----------------------
D|--------------------------------------4/6-------64--2vvvvvvv-------
A|-------------------------------------------------------------------
E|----------------------------------------------------------------0--

(E)    F#m                                                    A
And you run, and you run to catch up to the sun, but it's sinking,

Lead III
------------------
---7---5---3---2--
------------------
---7---5---4---2--
------------------
------------------

E                                          F#m
And racing around, to come up behind you again
Lead IV
-----------------------------------------------
---2-------------------------------------------
--4>(6)------4>(6)>4>2-----2-------------------
------------------------4------2-vvvvvvvvvvv---
-----------------------------------------------
-----------------------------------------------

E                                              A Asus4 A
The sun is the same in a relative way, but your older,

Lead V
-----------------------
----10---12----10------
----0-----0-----0------
----11---12----11------
-----------------------
-----------------------

E                                        F#m
Shorter of breath, and one day closer to death.

Dmaj7                           Amaj7
Every year is getting shorter, never seem to find the time
Dmaj7                            Amaj7
Plans that either come to naught, or half a page of scribbled lines
Dmaj7                           C#m
Hanging on in quite desperation is the english way,
Bm                                           Bm7         F
The time is gone, the song is over thought I'd something more to say. 

Pink Floyd - Time клип