» » Plumb - Who Am I аккорды

Plumb - Who Am I аккорды

Plumb - Who Am I аккорды и слова для гитары. Другие песни с аккордами исполнителя Plumb.

Author/Artist: Plumb
Title: Who am I?
Album: Plumb
Transcribed by: Brian Germer (Soul Detergent Music)
Email: [email protected], [email protected]


For more plumb tabs: https://www.geocities.com/SunsetStrip/Lounge/6098/index.htm


The guitar part for this is really boring, so I transcribed the bass part.


--------------------------------------||-------------|----|
-------2--1------1--0-----------------||-------------|-x4-|
---0----------3-------------3---------||---1--1--1---|----|
-----------------------3------3--4----||-------------|----|
Main riff                             Before chorus


--------------------------------------------------------|
-----7-------6-------5-------4--------------------------|
--------------------------------------------------------|
--5-----5-4-----4-3-----3-2-----2-1--1-1--1--1-1--1--3--|
Chorus


------------------------------------------------------------------------------
---5--4--3--2----5--4--3--2-3-4----5--4--3--2----5--4--3--2-1-0---------------
----------------------------------------------------------------4-3-2---------
----------------------------------------------------------------------6------
Bass solo


That's about it...
Comments or corrections - emial me
Brian Germer - [email protected]


Words and Music by Tiffany Arbuckle and Matt Bronleewe
c1997 Designer Music(SESAC)Brentwood Publishing/Song From the Farm/Longitude Music 

Plumb - Who Am I клип