» » Uncle Kracker - In A Little While аккорды

Uncle Kracker - In A Little While аккорды

Uncle Kracker - In A Little While аккорды и слова для гитары. Другие песни с аккордами исполнителя Uncle Kracker.

Tabbed by: Psykotic_Pony
Email: [email protected]

E|------------10--------10--12--14--1412---10-------------------------------|
B|----10h12--------12--------------------------------------------------------|
G|---------------------------------------------------------------------------|
D|---------------------------------------------------------------------------|
A|---------------------------------------------------------------------------|
E|---------------------------------------------------------------------------|


E|------------10--------10--12--14--1412---10-------------------------------|
B|----10h12--------12--------------------------------------------------------|
G|---------------------------------------------------------------------------|
D|---------------------------------------------------------------------------|
A|---------------------------------------------------------------------------|
E|---------------------------------------------------------------------------|


E|------------10--------10--12--14--1412---10-------------------------------|
B|----10h12--------12--------------------------------------------------------|
G|---------------------------------------------------------------------------|
D|---------------------------------------------------------------------------|
A|---------------------------------------------------------------------------|
E|---------------------------------------------------------------------------|


E|------------10--------10--1412--1412--1412-1412--1412--10--12--10-----|
B|----10h12--------12--------------------------------------------------------|
G|---------------------------------------------------------------------------|
D|---------------------------------------------------------------------------|
A|---------------------------------------------------------------------------|
E|---------------------------------------------------------------------------|

Uncle Kracker - In A Little While клип