» » Pink Floyd - In The Flesh? аккорды

Pink Floyd - In The Flesh? аккорды

Pink Floyd - In The Flesh? аккорды и слова для гитары. Другие песни с аккордами исполнителя Pink Floyd.

INTRO:
E|---------------------------------------------------------------0-|
B|--------------------------------------------------8------3----0-|
G|--------------------------------------------------7------2------|
D|-----------------------------------------------------------------|
A|-----------------------------0-------2---3vvvvv------------------|
E|---0--------2vvvvv---3vvvvv--------------------------------------|

E|--------0------------0------------------------------------------|
B|-----------3------------3---------------------------------------|
G|2>(4)-0------2>(4)-0------2>(4)--2-0----------------------------|
D|-------------------------------------2-0------------------------|
A|-----------------------------------------2-1-0---------2vvvvvvv-|
E|-----------------------------------------------3>(4)p0----------|

E|2vvvvv---4vvvvv---5vvvvv---4vvvvv--2vvvvv---4vvvvv---5vvvvv---7vvvvv-|
B|3vvvvv---5vvvvv---6vvvvv---5vvvvv--3vvvvv---5vvvvv---6vvvvv---8vvvvv-|
G|2vvvvv---4vvvvv---5vvvvv---4vvvvv--2vvvvv---4vvvvv---5vvvvv---7vvvvv-|
D|0vvvvv---0vvvvv---0vvvvv---0vvvvv--0vvvvv---0vvvvv---0vvvvv---0vvvvv-|
A|---------------------------------------------------------------------|
E|---------------------------------------------------------------------|

%
E|-----------------------------------------------------|
B|-----------------------------------------------------|
G|(2)-------------------------x------------------------|
D|(2)-------------------------x-x----------------------|
A|-0---2>(4)-2vvvvv--0--------x-x--4>(5)-4vvvvv-2vvvvv-|
E|----------------------2>(4)---x----------------------|

E|-----------------------------------------------------|
B|-----------------------------------------------------|
G|-----------------------------------------------------|
D|-2---------------------------------------------------|
A|-0---2>(4)-2vvvvv--0--------x-x--4>(5)-4vvvvv-2vvvvv-|
E|----------------------2>(4)-x-x----------------------|

E|----------------------------------------------------|
B|----------------------------------------------------|
G|-2--------------------------x-----------------------|
D|-2--------------------------x-----------------------|
A|-0---2>(4)-2vvvvv--0--1--2v---x--4>(5)-4vvvvv-2---3-|
E|----------------------------------------------------|

%
E|----------------------------|
B|----------------------------|
G|-------x--------------------|
D|-------x--------------------|
A|-4vvvv---5>(7)-5vvvvv-4-----|
E|------------------------12-|

VERSE:
E|---------------------------------------------2-----------------2-------|
B|---------2-----------------2--------------3-----3-----------3-----3----|
G|------2-----2-----------2-----2--------2-----------2-----2-----------2-|
D|---2-----------2-----2-----------2--0-----------------0----------------|
A|0-----------------0----------------------------------------------------|
E|-----------------------------------------------------------------------|

E|---------------------------------------------2-----------------2-------|
B|---------2-----------------2--------------3-----3-----------3-----3----|
G|------2-----2-----------2-----2--------2-----------2-----2-----------2-|
D|---2-----------2-----2-----------2--0-----------------0----------------|
A|0-----------------0----------------------------------------------------|
E|-----------------------------------------------------------------------|

E|-----------------------------------------------------------------------|
B|---------2-----------------2-----------------3-----------------3-------|
G|------2-----2-----------2-----2-----------4-----4-----------4-----4----|
D|---2-----------2-----2-----------2-----4-----------4-----4-----------4-|
A|0-----------------0-----------------2-----------------2----------------|
E|-----------------------------------------------------------------------|

E|---------------------------------------------0-----------------0-------|
B|---------5-----------------5--------------------0-----------------0----|
G|------6-----6-----------6-----6-----------1--------1--------1--------1-|
D|---6-----------6-----6-----------6-----2-----------------2-------------|
A|4-----------------4----------------------------------------------------|
E|------------------------------------0-----------------0----------------|

Repeat that over the verse two more times, except on the third time, replace the last three measures with:

E|---------------------|
B|---------5-----------|
G|------6--------------|
D|---6---------------2-|
A|4------------------2-|
E|-------------12---0-|

then repeat the measures between the percent signs in the intro, and end with:

E|-------------------/------|
B|-------------------/------|
G|-------------------2----2-|
D|-2---2-2-2-2-2-2---2----2-|
A|-2---2-2-2-2-2-2---0----0-|
E|-0---0-0-0-0-0-0----------|

Pink Floyd - In The Flesh? клип