» » Pixies - Distance Equals Rate Times Time аккорды

Pixies - Distance Equals Rate Times Time аккорды

Pixies - Distance Equals Rate Times Time аккорды и слова для гитары. Другие песни с аккордами исполнителя Pixies.

Distance Equals Rate Times Time - PIXIES


The rhythm part is just B-A-C#, except for the chorus, which is
just C#.
The bass just plays the name note of each chord, except for in the
chorus, when it plays this:

G   ----------------------------------
D   -----2-------7--------------------
A   ---2---2---7---7------------------
E   -0-------5-------9-9-9-9-9-9-9-9--

CHORDS:
B   A   C#
e|---|---|---|
B|---|-2-|---|
G|-4-|-2-|-6-|
D|-4-|-2-|-6-|
A|-2-|---|-4-|
E|---|---|---|

Pixies - Distance Equals Rate Times Time клип