» » Sugar Ray - Under The Sun аккорды

Sugar Ray - Under The Sun аккорды

Sugar Ray - Under The Sun аккорды и слова для гитары. Другие песни с аккордами исполнителя Sugar Ray.

Under the Sun (introduction)
by: Sugar Ray
Tabbed by: Mistah Franco

|--   --   --   -|
|-9   -7   -5   -|
|-9 X3-7 X8-5 X3-| Repeat twice
|-7   -5   -3   -|
|--   --   --   -|
|--   --   --   -|

|--------------------------------|
|--------------------------------|
|--------------------------------|
|-5/7-5-3-5--------2/4--2/4--2---|
|-----------2--2-4---------------|
|--------------------------------|

|--------------------------------------------|
|--------------------------------------------|
|-----------------------2--------------------|
|-5/7-5-3-5---------2/4---2/4-2--5/7-5-3-5---|
|------------2--2-4------------------------1-|
|--------------------------------------------|

That should be good.  It sounds right to me.
Any quest/comments/suggestions email me @ [email protected]

Sugar Ray - Under The Sun клип