» » Stranglers - Dead Los Angeles аккорды

Stranglers - Dead Los Angeles аккорды

Stranglers - Dead Los Angeles аккорды и слова для гитары. Другие песни с аккордами исполнителя Stranglers.

Stranglers - Dead Los Angeles

G|---------------------------------------------------------|
D|---------------------------------------------------------|
A|---------------------------------------------------------|
E|-0-3-0-2-0-0---0-3-0-2-0-0---0-3-0-5-0-0---0-3-0-5-0-0---|

G|-------------------------------------------|
D|-------------------------------------------|
A|-------------------------------------------|
E|-0-5-0-7-0-0---0-7-0-8-0-0---0-8-0-10-0-0--|

G|---------------------------------------|
D|---------------------------------------|
A|-----------------------------------12--|
E|-0-10-0-12-12-12-12-12-12-12-12-12-----|

Thats Pretty much it... you can figure out what goes where yourself.

Stranglers - Dead Los Angeles клип