» » Plumb - Willow Tree аккорды

Plumb - Willow Tree аккорды

Plumb - Willow Tree аккорды и слова для гитары. Другие песни с аккордами исполнителя Plumb.

#-----------------------------------------------------------------------------#
#-- File created with Instab - https://www.pconline.com/~smcarey/instab.html --#
#-----------------------------------------------------------------------------#

Author/Artist: Plumb
Title: Willow Tree
Album: Plumb
Transcribed by: Brian Germer
Email: [email protected], [email protected]
More tabs: https://members.xoom.com/Jarstabs/index.htm

*The tuning for this is down a half step (Eb, Ab, Db, Gb), but you can play the
main riff in normal tuning.  Just remember to play everything a fret lower.

---------------------------------------------||
---------------------------------------------||
--------9---10--7---------9---10--7----------||
---7------7----------7------7--------10-9-7--||
Main riff - intro and verses

----------------------|-----------------|
----------------------|-x3--------------|
------4----------2----|-----------------|
--2-----2--0---0---0--|-----2--2-2/4/6--|
Pre-Chorus - w/variation

--------------------------------------------------------|---------------------
--------------------------------------------------------|---------------------
------2h4------2---------2h4------2--------2h4-----2----|--------------2-1----
---4-------0------0---4-------0-----2---4-------0-----0-|-2--2-2/4/6-------2--
Chorus  (2nd time play main riff after bar)


I think that's about it.  There is a refrain, but the bass isn't really in it.

Words and Music by Tiffany Arbuckle and Chris Grafagnino
c1997 Designer Music(SESAC)/Seagraf Music(ASCAP), both admin. by Brentwood Music

Plumb - Willow Tree клип