» » Placebo - Special K аккорды

Placebo - Special K аккорды

Placebo - Special K аккорды и слова для гитары. Другие песни с аккордами исполнителя Placebo.

Placebo - Special К

Intro/Verse
G-------------------|----------------|
D-------------------|----------------|
A-------------------|------8-6-------|(skip this part
E-6-6-6666-6-6-6666-|-6-6h8----9-8-6-|the first time)

G--------------------|--------------|
D--------------------|--------------|
A--------------------|--------------|
E--2-2-2222-2-2-2222-|2-2-2224-4-6-6|

Pre-chorus

G----------|----------------|
D----------|--------15(x 8)-|
A-4(x 16)--|6(x 8)----------|
E----------|----------------|

Chorus

G---------------|-------------|
D---------------|-------------|
A--4(x 16)------|-------------|(x 2)
E---------------|6(x 16)------|

G-----------------|
D---------4443-33-|
A-----------------|(x 4)
E-2--22-2---------|

Last note of the song
G-----
D-----
A--4--
E-----

Placebo - Special K клип