» » Usher - I Love You 2 аккорды

Usher - I Love You 2 аккорды

Usher - I Love You 2 аккорды и слова для гитары. Другие песни с аккордами исполнителя Usher.

e|-----------------------------------------------------------3-----|
B|--------------------------5------------------5-------------3-----|
G|--0h2-0-0h2-----0h2--5-7--5---7-----5--5---5-5-----3-3--3--------|
D|--0h2-0-0h2-----0h2-----------6-----5--5---5-------3-3--3--------|
A|--------------------------------------------------------3--------|
E|-------------1------------6---6-----5------5-----3---------------|

e|-------------------------------------------------------------------|
B|-------------------------5---------------6-6h8p6-------3------3----|
G|--0h2-0-0h2-----0h2--5-7-5---7------5-5--5-------5-----3------3----|
D|--0h2-0-0h2-----0h2----------6------5-5--7-------------3------3----|
A|-----------------------------------------5--------------------3----|
E|-------------1-----------6---6------5------------------3-----------|

Fmaj7
my first time I cried
Gm7             C11
you were   incredible, took my breath away
Fmaj7
I remember first time your eyes met mine
Gm7
I saw a lot of me in you
C11
that day I vowed to Do my best
Am7          Dm7
to try and teach you right when you're wrong
Gm7
but you gotta live out your lessons
C11
time makes it all right
E7       Am7           Dm7
watch you grow, you think you know
Gm7                Am7
but I know better cos I been there, seen that, did it
Bbmaj7            C11
how you think you got it

Chorus:
Fmaj7                Bb9-5     Bb7-5
My gift for life is seeing the smile on your face
Am7           Gm7   C11
that's when all of my troubles melt away
Fmaj7                   Bb9-5    Bb7-5 Am7   Dm7
holding you in my arms makes the world feel like a better place
Gm7            C11                   Fmaj7
you say I love you,  well I say that I love you too
Gm7     C11
I love you, I love you,    you too I Do

Fmaj7
my second time around
Gm7
man this is crazy incredible
C11
to feel something like this again is so remarkable
Fmaj7
big bright eyes, little lips, with daddy's attitude
Gm7
so I know the biggest job ahead of me

C11
is doing my best
Am7          Dm7
to try and teach you right when you're wrong
Gm7
but you gotta live out your lessons
C11
time makes it all right
E7       Am7            Dm7
watch you grow, you think you know
Gm7               Am7
I know better cos I been there, seen that, did it
Bbmaj7             C11
how you think you got it

Fmaj7                Bb9-5     Bb7-5
My gift for life is seeing the smile on your face
Am7           Gm7   C11
that's when all of my troubles melt away
Fmaj7                   Bb9-5    Bb7-5 Am7   Dm7
holding you in my arms makes the world feel like a better place
Gm7            C11
you say I love you,  well I say that I love you too

Bridge:

C#maj7                F#maj7
life ain't a perfect story write it while you live it
Fmaj7
Most of all   gather your pain
Am7       Dm7
know that joy's gonna kill it
C#maj7                   F#maj7
and no matter what you're still together
Gm7                Am7
ha listen you're gonna fight but   work it out
Bbmaj7        C#11     F#maj7
You're all you got  in this life

F#maj7                B9-5     B7-5
My gift for life is seeing the smile on your face
Bbm7           Abm7   C#11
that's when all of my troubles  melt away
F#maj7                   B9-5    B7-5 Bbm7   Ebm7
holding you in my arms makes the world feel like a better place
Abm7         C#11
y'all know I love you
F#maj7                B9-5     B7-5
My gift for life is seeing the smile on your face
Bbm7           Abm7   C#11
that's when all of my troubles  melt away
F#maj7                   B9-5    B7-5 Bbm7   Ebm7
holding you in my arms makes the world feel like a better place
Abm7           C#11                  F#maj7
you say i love you,   and I say that I love you too
Bmaj7      F#maj7      Bmaj7   F#maj7
I love you,  I love you,   love you too   ooh
Bmaj7       F#maj7     Bmaj7
love you more,   love you too   I love
F#maj7
I love  you too

Usher - I Love You 2 клип