» » Placebo - Slave To The Age аккорды

Placebo - Slave To The Age аккорды

Placebo - Slave To The Age аккорды и слова для гитары. Другие песни с аккордами исполнителя Placebo.

Author/Artist: Placebo
Title: Slave to the wage
Album: Black market music
Transcribed by: mor

It sounds good but I'm not sure it's correct

-|---------------------------------------------------------------------------
-|---------------------------------------------------------------------------
-|-----6666666666--0000000000000000000--00000000000--333------------------
-|-----7777777777--6666666666666666666--44444444444--444------------------
-|-----0000000000--7777777777777777777--55555555555--555------------------
-|---------------------------------------------------------------------------

main riff

-|---------------------------------------------------------------------------
-|---------------------------------------------------------------------------
-|-----6666666666--0000000000000000000--00000000000--333------------------
-|-----7777777777--6666666666666666666--44444444444--444------------------
-|-----0000000000--7777777777777777777--55555555555--555------------------
-|---------------------------------------------------------------------------

chorus: now distortion and the same verses

-|-----x------------------------------------------|---------------------------
-|-----0------------------------------------------|---------------------------
-|-----0------------------------------------------|---------------------------
-|-----0------------------------------------------|---------------------------
-|-----9------------------------------------------|---------------------------
-|-----x------------------------------------------|---------------------------

this is after the chorus...with distortion

Placebo - Slave To The Age клип