» » Static X - Wisconsin Death Trip аккорды

Static X - Wisconsin Death Trip аккорды

Static X - Wisconsin Death Trip аккорды и слова для гитары. Другие песни с аккордами исполнителя Static X.

Song: Wisconsin Death Trip
Album: Wisconsin Death Trip
Artist: Static X

this is the easiest song i have found in quite a while. just tune your guitar to dropped C:
(C-G-C-F-A-D)

Intro:
D|-----------------------------------------------------------------------------------
A|-----------------------------------------------------------------------------------
F|-----------------------------------------------------------------------------------
C|---x-x----x-x-x-x--x-x----x-x-x-x--x-x----x-x-x-x--x-x--------------------------   Repeat x1
G|---x-x----x-x-x-x--x-x----x-x-x-x--x-x----x-x-x-x--x-x--------------------------
C|---x-x----x-x-x-x--x-x----x-x-x-x--x-x----x-x-x-x--x-x--------------------------

Verse:
D|-----------------------------------------------------------------------------------
A|-----------------------------------------------------------------------------------
F|-----------------------------------------------------------------------------------
C|---5p0----5p0-5p0--5p0----5p0-5p0--5p0----5p0-5p0--5p0----5p0p-5p0------  Repeat x2
G|---5p0----5p0-5p0--5p0----5p0-5p0--5p0----5p0-5p0--5p0----5p0p-5p0------
C|---5p0----5p0-5p0--5p0----5p0-5p0--5p0----5p0-5p0--5p0----5p0p-5p0-------

-A little pause

-Verse x1

Chorus:
D|---------------------------------------------------------------------------------------------
A|---------------------------------------------------------------------------------------------
F|---------------------------------------------------------------------------------------------
C|---6p5~~---6p5-6p5--6p5~~---6p5-6p5--6p5~~---6p5-6p5--6p5~~---6p5p-6p5------- Repeat x1
G|---6p5~~---6p5-6p5--6p5~~---6p5-6p5--6p5~~---6p5-6p5--6p5~~---6p5p-6p5-------
C|---6p5~~---6p5-6p5--6p5~~---6p5-6p5--6p5~~---6p5-5p5--6p5~~---6p5p-6p5-------

- Intro

-Verse x1

-Chorus x1

Then:

2nd Chorus:
D|---------------------------------------------------------------------------------------------
A|---------------------------------------------------------------------------------------------
F|---------------------------------------------------------------------------------------------
C|---1p0~~---1p0-1p0--1p0~~---1p0-1p0--1p0~~---1p0-1p0--1p0~~---1p0p-1p0-------
G|---1p0~~---1p0-1p0--1p0~~---1p0-1p0--1p0~~---1p0-1p0--1p0~~---1p0p-1p0-------
C|---1p0~~---1p0-1p0--1p0~~---1p0-1p0--1p0~~---1p0-1p0--1p0~~---1p0p-1p0-------

-Intro (with palm muting) x2

-Chorus x1

-Verse x1

-Verse x1 (with palm muting on the open notes)

That's it. One of the most simplest songs ever to be written. Enjoy.


Tabbed by: Daniel Molnar ([email protected])

Static X - Wisconsin Death Trip клип