» » Status Quo - Caroline аккорды

Status Quo - Caroline аккорды

Status Quo - Caroline аккорды и слова для гитары. Другие песни с аккордами исполнителя Status Quo.

TABBED BY MARCUS LUBBOCK
STATUS QUO
Caroline Email [email protected]
( Rossi / Young )

Rick's guitar opening:

E|-----------------------------------------------------|
B|-----------------------------------------------------|
G|-----------------------------------------------------|
D|-----------------------------------------------------|
A|-15-15-17-15-18-15-17-15-15-15-17-15-18-15-17-..etc..|
E|-13-13-13-13-13-13-13-13-13-13-13-13-13-13-13-..etc..|

Francis' guitar opening:

E|-----------------------------------------------------|
B|-----------------------------------------------------|
G|-----3-2---3-2----3-2---3-2----3-2-..etc..-----------|
D|-(3)-----3------3-----3------3-----..etc..-----------|
A|-----------------------------------------------------|
E|-----------------------------------------------------|

Francis' guitar on the intro with the band in and also the solo in the middle:
F
E|----------------------------------------------------|
B|----------------------------------------------------|
G|-----3-2---3-2----3-2---3-2----3-2---3-2----3-2---3-|
D|-(3)-----3------3-----3------3-----3------3-----3---|
A|----------------------------------------------------|
E|----------------------------------------------------|

Bb                       F
E|-----------------------------------------------|
B|-----------------------------------------------|
G|-1---3-1---3-1---3-1---3-2----3-2---3-2----3-2-|
D|---3-----3-----3-----3------3-----3------3-----|
A|-----------------------------------------------|
E|-----------------------------------------------|

C             Bb          F
E|-----------------------------------------------------------|
B|-----------------------------------------------------------|
G|-2h3p2-5-3-2-0-0-2-0-1-1-1-0-------3-2---3-2----3-2-..etc..|
D|-----------------------------3-3-3-----3------3-----..etc..|
A|-----------------------------------------------------------|
E|-----------------------------------------------------------|

F
If you want to turn me onto
Bb
Anything you really want to
F          C          F  - C
Turn me onto your love sweet love

F
If the night-time is the right time
Bb
Anytime of yours is my time
F             C          F   - C
We can find time for love sweet love

F
Come on sweet Caroline

You?re my sweet Caroline
Bb
You know I want to take you

I?ve really got to make you
F
Come on sweet Caroline
C            Bb                    F   - C
Take my hand together we can rock-n-roll

F
When I?m thinking of you sleeping
Bb
I?m at home alone and weeping
F            C          F  - C
Are you keeping your love sweet love

F
Do you still care when I?m not there
Bb
Do you really wish I was there
F              C          F  - C
Can I come there for love sweet love

F
Come on sweet Caroline

You?re my sweet Caroline
Bb
You know I want to take you

I?ve really got to make you
F
Come on sweet Caroline
C            Bb                     F  - C
Take my hand together we can rock-n-roll

Status Quo - Caroline клип