» » Lost Prophets - Five Is A Four Letter Word аккорды

Lost Prophets - Five Is A Four Letter Word аккорды

Lost Prophets - Five Is A Four Letter Word аккорды и слова для гитары. Другие песни с аккордами исполнителя Lost Prophets.

tuning is CGCFAD
This is a tight song

Intro play 8 times
-------------------
-------------------
-------------------
-5-----------------
-3-00--00-0-0000---
-------------------

Play 3 times   ---------|
------------------      |
------------------      |
------------------      |
-5----------------      |
-3-00--00-0-0000--      |
-3----------------      |
|-------Play through twice
then play this once     |this is also the chorus
----------------------- |
----------------------  |
----------------------  |
-5--------------------  |
-3-00--00-0-3h5-55-3--  |
-3--------------------  |
------------|

verse(part one play twice) 10's not 1's and 0's
--------------------------------
-10-1010-1010-10-1010-1010--------
---------------------------------
---------------------------------
--------------------------------
--------------------------------

14's not 1's and 4's
-------------------------------
-------------------------------
-------------------------------
-14-1414-1414-14-1414-1414-----
-------------------------------
-------------------------------

verse part 2 play twice
------------------------------
-10-1010-1010-10-1010-1010----
------------------------------
------------------------------
------------------------------
------------------------------

-14-1414-1414-----------------
--------------14-1414-1414----
------------------------------
------------------------------
------------------------------
------------------------------

Bridge
----------------
----------------
----------------
-5-7-2-0--------
-5-7-2-0--------
-5-7-2-0--------

--------------
--------------
--------------
-7-5-2-5------
-5-3-2-3------
-0-3-2-3------

Lost Prophets - Five Is A Four Letter Word клип