» » Stranglers - Dead Ringer аккорды

Stranglers - Dead Ringer аккорды

Stranglers - Dead Ringer аккорды и слова для гитары. Другие песни с аккордами исполнителя Stranglers.

BAND: THE STRANGLERS
SONG: DEAD RINGER
ALBUM: NO MORE HEROES
BASSIST:JJ BURNEL


PART 1:
G|----------------------------|
D|----------------------------|
A|------------1-1-1-0---------|
E|-0-0-0-0-3-----------3------|

PART 2
G|--------------------------------------------------------|
D|--------------------------------------------------------|
A|-2-------------2-----------2-----------2----1-1-1-0-----|
E|---3/--5-5-0-----3/-5-5-0----3/-5-5-0----3----------3---|

THIS IS PRETTY MUCH IT EXCEPT FOR THE ODD VARIATION, MOST OF THEM STILL BASED AROUND THE SAME NOTE.
ONE OF THE EASIEST BASS LINES IN THE WORLD.

Stranglers - Dead Ringer клип