» » Pink Floyd - Interstellar Overdrive аккорды

Pink Floyd - Interstellar Overdrive аккорды

Pink Floyd - Interstellar Overdrive аккорды и слова для гитары. Другие песни с аккордами исполнителя Pink Floyd.

  E|--------------------------------------------------|
B|--------------------------------------------------|
G|--------------------------------------------------|
D|------------------2-2----9-9-8-9-8--7-7-6-7-6-5-5-|
A|-------------------------7-7-6-7-6--5-5-4-5-4-3-3-|
E|-12 slide то 0-0-0-0-0-0--------------------------|

E|-----------------0---|
B|-------------------0-|
G|---------------------|
D|-5-5-5-5-------------|
A|-3-3-3-3-7-7-7-2-----|
E|---------5-5-5-0-----|

E|-----------------------------------------------|
B|-----------------------------------------------|
G|-----------------------------------------------|
D|------9-9-8-9-8--7-7-6-7-6-5-5-5-5-5-5---------|
A|------7-7-6-7-6--5-5-4-5-4-3-3-3-3-3-3-7-7-7-2-|
E|---------------------------------------5-5-5-0-|

E|-0-----12-12-11-12-11-|
B|---0---12-12-11-12-11-|
G|-----0-12-12-11-12-11-|
D|-------14-14-13-14-13-|
A|-------14-14-13-14-13-|
E|-------12-12-11-12-11-|

E|--10-10-9--10-9--8--8--8----s-u-12------12-12-11-12-11-|
B|--10-10-9--10-9--8--8--8--s-l-p-12------12-12-11-12-11-|
G|--10-10-9--10-9--9--9--9--l-i---13------12-12-11-12-11-|
D|--12-12-11-12-11-10-10-10-о-d---14------14-14-13-14-13-|
A|--12-12-11-12-11-10-10-10-w-e-t-14------14-14-13-14-13-|
E|--10-10-9--10-9--8--8--8------о-12------12-12-11-12-11-|

E|--10-10-9--10-9--8--8--8----s-u-12-|
B|--10-10-9--10-9--8--8--8--s-l-p-12-|
G|--10-10-9--10-9--9--9--9--l-i---13-|
D|--12-12-11-12-11-10-10-10-о-d---14-|
A|--12-12-11-12-11-10-10-10-w-e-t-14-|
E|--10-10-9--10-9--8--8--8------о-12-|

Pink Floyd - Interstellar Overdrive клип