» » Pixies - Debaser аккорды

Pixies - Debaser аккорды

Pixies - Debaser аккорды и слова для гитары. Другие песни с аккордами исполнителя Pixies.

name=simon woods
band=The pixies
song=Debaser
inst_type=Bass
body=Debaser by the Pixies

Bass intro:
G-----------------------------------#
D-----------------------------------#
A--1-1-1-1---------3-3-3-3----------#
E----------1-1-1-1---------1-1-1-1--#


rest of the song: (just repeat untill the song finishes)

G---------------------------------------------------#
D--0--0--0--0---------------------------------------#
A--------------0--0--0--0--1--1--1--1--3--3--3--3---#
E---------------------------------------------------#


G--------------------------------------------------#
D--------------------------------------0--0--0--0--#
A--------------0--0--0--0--3--3--3--3--------------#
E--1--1--1--1--------------------------------------#


G--------------------------------------------------#
D--------------------------------------------------#
A--1--1--1--1--3--3--3--3--------------------3--3--#
E--------------------------3--3--3--3--------------#


and thats it!

Pixies - Debaser клип