» » Lost Prophets - Hello Again аккорды

Lost Prophets - Hello Again аккорды

Lost Prophets - Hello Again аккорды и слова для гитары. Другие песни с аккордами исполнителя Lost Prophets.

Artist: Lost Prophets
Title: Hello Again
Album: Start Something
Tuning: Dropped D (DADGBe) Low to High
Tabber: [email protected]

This is another awsome song from Start Something. Is it just me or does
anyone else think this album is amazing? I don't think i've stopped listening to it since i bought it :S

I haven't put down how many times you play each section. It isn't hard
to figure out anyway

Ok so this tab can get very confusing, so listen to the song carefully
for the timing, especialy at the end. Also, I found it very hard to hear
the Lead in the Chorus and various other sections, so some of it is
pretty much made up



Intro: There must be an easier way to play this, but this sounds good.
I think there's a bit of delay on it too.            2nd time
|-----5--5------------------------5--5---------0--0-|--0----0-|
|------------------10-10----------------------------|----10---|
|---7--------7---7---------7---6---------6---7------|---------|
|-9--------9---9---------9---9---------9---9--------|---------|
|---------------------------------------------------|---------|
|---------------------------------------------------|---------|



Verse (Rhythm): Strum these notes once and let them ring
|--------------------------------------|
|--------------------------------------|
|-4-------------------4----------------|
|-4----2----4----0----4----2----4----7-|
|-2----2----4----0----2----2----4----7-|
|------2----4----0---------2----4----7-|

Verse (Lead): This is just the intro played again
|-----5--5------------------------5--5---------0--0-|--0----0-|
|------------------10-10----------------------------|----10---|
|---7--------7---7---------7---6---------6---7------|---------|
|-9--------9---9---------9---9---------9---9--------|---------|
|---------------------------------------------------|---------|
|---------------------------------------------------|---------|



Pre-Chorus (Rhythm): Not the exact amount
|-------------------------------|
|-------------------------------|
|-------------------------------|
|-5-5-5-5-5-5-5-5-7-7-7-7-7-7-7-|
|-5-5-5-5-5-5-5-5-7-7-7-7-7-7-7-|
|-5-5-5-5-5-5-5-5-7-7-7-7-7-7-7-|
PM. . . . . . . . . . . . . . .

Slowly release the PM on this bit then mute the very last 9
after it is played
|-------------------------------------------|
|-------------------------------------------|
|-------------------------------------------|
|-5-5-5-5-5-5-5-5-5-5-5-5-5-5-5-5-9~~~~-9-9-|
|-5-5-5-5-5-5-5-5-5-5-5-5-5-5-5-5-9~~~~-9-9-|
|-5-5-5-5-5-5-5-5-5-5-5-5-5-5-5-5-9~~~~-9-9-|
PM. . . . . . . . . .

Pre-Chorus (Lead): This is the intro riff again. Just keep playing
this right up to the chorus
|-----5--5------------------------5--5---------0--0-|--0----0-|
|------------------10-10----------------------------|----10---|
|---7--------7---7---------7---6---------6---7------|---------|
|-9--------9---9---------9---9---------9---9--------|---------|
|---------------------------------------------------|---------|
|---------------------------------------------------|---------|



Chorus (Rhythm): Not the exact amount
|---------------------------------------------------------|
|---------------------------------------------------------|
|---------------------------------------------------------|
|-9-9-9-9-9-9-9-0-0-0-0-0-0-0-5-5-5-5-5-5-5-5-5-5-5-5-5-5-|
|-9-9-9-9-9-9-9-0-0-0-0-0-0-0-5-5-5-5-5-5-5-5-5-5-5-5-5-5-|
|-9-9-9-9-9-9-9-0-0-0-0-0-0-0-5-5-5-5-5-5-5-5-5-5-5-5-5-5-|

|---------------------------------------------------------|
|---------------------------------------------------------|
|---------------------------------------------------------|
|-9-9-9-9-9-9-9-0-0-0-0-0-0-0-5-5-5-5-5-5-5-7-7-7-7-7-7-7-|
|-9-9-9-9-9-9-9-0-0-0-0-0-0-0-5-5-5-5-5-5-5-7-7-7-7-7-7-7-|
|-9-9-9-9-9-9-9-0-0-0-0-0-0-0-5-5-5-5-5-5-5-7-7-7-7-7-7-7-|

Chorus (Lead): I dont know what is played by here
but this sounds ok. I've tried to match it with
the rhythm pattern above so its easier to tell
when to change
|---------------------------------------------------------|
|---------------------------------------------------------|
|-16-16-16-16-16-16-16-16-16--12-12-12-12-12-12-12-12-12--|
|-x--x--x--x--x--x--x--x--x---x--x--x--x--x--x--x--x--x---|
|-14-14-14-14-14-14-14-14-14--10-10-10-10-10-10-10-10-10--|
|---------------------------------------------------------|

|---------------------------------------------------------|
|---------------------------------------------------------|
|-16-16-16-16-16-16-16-16-16--12-12-12-12-12-14-14-14-14--|
|-x--x--x--x--x--x--x--x--x---x--x--x--x--x--x--x--x--x---|
|-14-14-14-14-14-14-14-14-14--10-10-10-10-10-12-12-12-12--|
|---------------------------------------------------------|


Then play the Verse again for the normal length


Then play the Pre-Chorus again


Then play the Chorus for the normal length



Interlude Pt.1 (Rhythm): I have no idea what chrod is played
on this part, but this sounds ok if you play it fast.
Strum each chord as an upstroke once.
|-7-----|
|--10---|
|----7--| x 4
|-----9-|
|-------|
|-------|

Interlude Pt.1 (Lead):
|-------------------------------------------------------|
|-------------------------------------------------------|
|---7-------7--9-9/11----------9-----------7--11--11-12-|
|-9-------9----------------7-9---9-7-----9--------------|
|-------------------------------------------------------|
|-------------------------------------------------------|

|----------------------------------------------------|
|----------------------------------------------------|
|---7-------7--9-9/11----------9-----------12--11----|
|-9-------9----------------7-9---9-7-----9--------12-|
|------------------------------------7---------------|
|----------------------------------------------------|



Interlude Pt.2 (Rhythm):
|-----------------------------------------------------------------|
|-----------------------------------------------------------------|
|-----------------------------------------------------------------|
|-9-9-9-9-9-9-9-9-2-2-2-2-2-2-2-2-4-4-4-4-4-4-4-4-0-0-0-0-0-0-0-0-|
|-9-9-9-9-9-9-9-9-2-2-2-2-2-2-2-2-4-4-4-4-4-4-4-4-0-0-0-0-0-0-0-0-|
|-9-9-9-9-9-9-9-9-2-2-2-2-2-2-2-2-4-4-4-4-4-4-4-4-0-0-0-0-0-0-0-0-|

|-----------------------------------------------------------------|
|-----------------------------------------------------------------|
|-----------------------------------------------------------------|
|-9-9-9-9-9-9-9-9-2-2-2-2-2-2-2-2-4-4-4-4-4-4-4-4-7-7-7-7-7-7-7-7-|
|-9-9-9-9-9-9-9-9-2-2-2-2-2-2-2-2-4-4-4-4-4-4-4-4-7-7-7-7-7-7-7-7-|
|-9-9-9-9-9-9-9-9-2-2-2-2-2-2-2-2-4-4-4-4-4-4-4-4-7-7-7-7-7-7-7-7-|

|-----------------------------------------------------------------|
|-----------------------------------------------------------------|
|-----------------------------------------------------------------|
|-9-9-9-9-9-9-9-9-2-2-2-2-2-2-2-2-5-5-5-5-5-5-5-5-5-5-5-5-5-5-5-5-|
|-9-9-9-9-9-9-9-9-2-2-2-2-2-2-2-2-5-5-5-5-5-5-5-5-5-5-5-5-5-5-5-5-|
|-9-9-9-9-9-9-9-9-2-2-2-2-2-2-2-2-5-5-5-5-5-5-5-5-5-5-5-5-5-5-5-5-|

Interlude Pt.2 (Lead): I think this is whats played. It's really
hard to hear the lead on this song
|-----------------------------------------------------------------|
|-----------------------------------------------------------------|
|-4-4-4-4-4-4-4-4-4-4-4-4-4-4-4-4-4-4-4-4-4-4-4-4-4-4-4-4-4-4-4-4-|
|-4-4-4-4-4-4-4-4-4-4-4-4-4-4-4-4-4-4-4-4-4-4-4-4-4-4-4-4-4-4-4-4-|
|-2-2-2-2-2-2-2-2-2-2-2-2-2-2-2-2-2-2-2-2-2-2-2-2-2-2-2-2-2-2-2-2-|
|-----------------------------------------------------------------|

|-----------------------------------------------------------------|
|-----------------------------------------------------------------|
|-4-4-4-4-4-4-4-4-4-4-4-4-4-4-4-4-4-4-4-4-4-4-4-4-2-2-2-2-2-2-2-2-|
|-4-4-4-4-4-4-4-4-4-4-4-4-4-4-4-4-4-4-4-4-4-4-4-4-2-2-2-2-2-2-2-2-|
|-2-2-2-2-2-2-2-2-2-2-2-2-2-2-2-2-2-2-2-2-2-2-2-2-0-0-0-0-0-0-0-0-|
|-----------------------------------------------------------------|

|-----------------------------------------------------------------|
|-----------------------------------------------------------------|
|-4-4-4-4-4-4-4-4-4-4-4-4-4-4-4-2-2-2-2-2-2-2-2-2-2-2-2-2-2-2-2-2-|
|-4-4-4-4-4-4-4-4-4-4-4-4-4-4-4-2-2-2-2-2-2-2-2-2-2-2-2-2-2-2-2-2-|
|-2-2-2-2-2-2-2-2-2-2-2-2-2-2-2-0-0-0-0-0-0-0-0-0-0-0-0-0-0-0-0-0-|
|-----------------------------------------------------------------|

On the last bar of Interlude Pt.2, its just 1 guitar playing this:
|-------------------------------------------------|
|-------------------------------------------------|
|-14-14-14-14-14-14-14-14-14-14-14-14-14-14-14-14-|
|-x--x--x--x--x--x--x--x--x--x--x--x--x--x--x--x--|
|-12-12-12-12-12-12-12-12-12-12-12-12-12-12-12-12-|
|-------------------------------------------------|



The timing is pretty strange on this part, the 2nd guitar comes in
(after the 1st guitar stops playing on its own) half way through
the chorus, if you get what i mean. This is what is played:

Rhythm: Not the exact amount.
I'm pretty sure both guitars play this bit
|-----------------------------------------------------------|
|-----------------------------------------------------------|
|-----------------------------------------------------------|
|-0-0-0-0-0-0-0-0-0-5-5-5-5-5-5-5-5-5-5-5-5-5-5-5-5-5-5-5-5-|
|-0-0-0-0-0-0-0-0-0-5-5-5-5-5-5-5-5-5-5-5-5-5-5-5-5-5-5-5-5-|
|-0-0-0-0-0-0-0-0-0-5-5-5-5-5-5-5-5-5-5-5-5-5-5-5-5-5-5-5-5-|



Then play the Chorus with both guitars



On the last time the chorus is played,
the Lead guitar plays this a load of times:
|-17----17----17-------17----|
|----17----17----17p19----17-|
|----------------------------|
|----------------------------|
|----------------------------|
|----------------------------|

Then finish with the Intro a few times and your done.

Yet another great tab from The Legend

Lost Prophets - Hello Again клип