» » Placebo - Slave To The Wage аккорды

Placebo - Slave To The Wage аккорды

Placebo - Slave To The Wage аккорды и слова для гитары. Другие песни с аккордами исполнителя Placebo.

Slave To The Wage
By:Iris
tuning / FA#D#G#
It`s actually played on Baritone guitar,but it sounds good on bass too.
The amount of notes isn`t exactly right.but listen to the song and you should get it.
I hope you understand. corrections etc. send to [email protected]
This is how Brian plays it.

Intro + Verses   it`s a maze..
G------------------------------------------------------
D-------------------2-2-2-2-2-0-0-0-0-0----------------
A-0-0-0-0-0-0-0------------------------00-000-0-0-000--
F------------------------------------------------------

add for second time and blah...I think You`re clever,guys;-))
G--------------------------------------
D--------------------------------------
A-12-12-0-12-12-0-12-12-12-12-12-------
F--------------------------------------
chorus               to try.....
G----------------------------------------------------------------
D-2-2-2-2-2-0-0-0-0-0--------------------------------------------
A----------------------10-10-10-10-10-11-11-11-11-11-12-12-12-12-
F----------------------------------------------------------------
end of chorus
G-----------------------------------------------------------
D-----------------------------------------------------------
A-12-10-00-000-0-0-000----12-12-12-0-12-12-0-12-12-12-12-12-
F-----------------------------------------------------------

Placebo - Slave To The Wage клип