» » Usher - Love in this club аккорды

Usher - Love in this club аккорды

Usher - Love in this club аккорды и слова для гитары. Другие песни с аккордами исполнителя Usher.

Tuning: Standard

e -----------------------------------------------|
B -----------------------------------------------|
G ---------------------0-2-2-2-0-----------------|
D --------------2-2-2------------3-3-3-2---------|
A -3--3--3--5-----------------------------3-3----|
E -----------------------------------------------|

e -----------------------------------------------|
B -----------------------------------------------|
G -----------0-2-2-2-0---------------------------|
D ---0-2-2-2------------3-3-3-2------------------|
A -3-------------------------------3-3-----------|
E -----------------------------------------------|

e -----------------------------------------------|
B -----------------------------------------------|
G -----------------------------------------------|
D ---------6-6-6-6-6-6-6-6-4-4-4-4-4-2-2---------|
A -3-3-3-----------------------------------------|
E -----------------------------------------------|

e -----------------------------------------------|
B -----------------------------------------------|
G ------------------------------4----------------|
D --- 6-6-6-6-6-6-6-6-6-4-4-4-4---2--------------|
A --3--------------------------------------------|
E -----------------------------------------------|

e -----------------------------------------------|
B -----------------------------------------------|
G -------------------------------4-4-------------|
D -6-6-6-6-6-6-6-6-6-6-6-4-4-4-4-----2-----------|
A -----------------------------------------------|
E -----------------------------------------------|

Usher - Love in this club клип