» » Def Leppard - Wasted аккорды

Def Leppard - Wasted аккорды

Def Leppard - Wasted аккорды и слова для гитары. Другие песни с аккордами исполнителя Def Leppard.

Def Leppard
Wasted Bass Tab

intro/verse:

g|---------------||
d|-----5---------||
a|--7-5-5-7-3-5-2||
e|-0-------------||

bridge:

g|--------------------------||
d|---------------2-2-0-0-3-3||
a|--------3-3-2-2-----------||
e|-0-0-3-3------------------||

chorus

g|------------------||
d|------------------||
a|--5-0-3-2-3-2-0---||
e|-0-------------3-0||

Song Structure:

intro/verse x8
chorus x4
verse x8
chorus x4
bridge x4
chorus x4

this song is pretty simple and i hope thaat all you out there enjoy this one!!!

Def Leppard - Wasted клип