» » Iggy Pop - Real Wild Child (btab) аккорды

Iggy Pop - Real Wild Child (btab) аккорды

Iggy Pop - Real Wild Child (btab) аккорды и слова для гитары. Другие песни с аккордами исполнителя Iggy Pop.

Intro:
|-----------------|
|-----------------|
|-----------------|}x4
|-0-0-0-0-0-0-0-0-|
1 & 2 & 3 & 4 &

Verse:
E x4               A x2             E x2
|-----------------|-----------------|------------------|
|-----------------|-----------------|------------------|
|-----------------|-----------------|------------------|
|-0-0-0-0-0-0-0-0-|-5-5-5-5-5-5-5-5-|--0-0-0-0-0-0-0-0-|

A                 B                 E
|-----------------|-----------------|-----------------|
|-----------------|-----------------|-----------------|
|-----------------|-----------------|-----------------|
|-5-5-5-5-5-5-5-5-|-7-7-7-7-7-7-7-7-|-0-0-0-0-0-0-0-0-|

B
|-----------------|
|-----------------|
|-----------------|
|-7-7-7-7-7-7-7-7-|

Iggy Pop - Real Wild Child (btab) клип