» » Kings Of Leon - Mi Amigo аккорды

Kings Of Leon - Mi Amigo аккорды

Kings Of Leon - Mi Amigo аккорды и слова для гитары. Другие песни с аккордами исполнителя Kings Of Leon.

D        C7    D7
I've a got friend
D7   C7   G
Shows me all the good times
D
Tells me all look better
G
Chews me up and spits me out
D
And then walks my ass home
A         G
Sings a song, when I'm gone, gone, gone

That little friend
Shoots me up and down town
When I can't get me drunk enough
To pick me out the pieces
Of a place I call home
Sings a song, till I'm gone, gone, gone

A little friend
Shoots me up and downtown
When I can't get me drunk enough
To picky me out the pieces
Of a place I call home
To sing a song, till I'm gone, gone, gone (oh ya'know)
Gone, Gone, Gone

I've got a friend
Helps me to get up again
Showers me in boozes
Tells me i've got a big ol' dick
And she walks my ass home
To sing a song, till I'm gone, gone, gone (you know son!)
Gone, Gone, Gone, Gone, Gone, Gone



Lead: Just before the A Chord changes to G
e|--------5-----------------|
B|--------------------------|
G|----5h6-------------------|
D|--------------------------|
A|--------------------------|
E|--------------------------|

Lead: Gone, gone, gone bit
e|--------------------------|
B|---7-7--12-10-------------|
G|--------------------------|  x4
D|--------------------------|
A|--------------------------|
E|--------------------------|

e|------------------------------------------------------|
B|----------------15----------------15------------------|
G|----------14h16-16-------- 14h16--16------------------|
D|-----14h16------------14h16---------------------------| x2
A|------------------------------------------------------|
E|------------------------------------------------------|

Kings Of Leon - Mi Amigo клип