» » Nazareth - Hair Of The Dog аккорды

Nazareth - Hair Of The Dog аккорды

Nazareth - Hair Of The Dog аккорды и слова для гитары. Другие песни с аккордами исполнителя Nazareth.

Riff 1
e|-------------------------------------------------------
b|-------------------------------------------------------
g|-------------------------------------------------------
d|------------------------2----------5b--2--------2------
a|--------------------2------------------------5---------
e|--0----0----3--4---------------------------------------

Riff 2
e|-------------------------------------------------------
b|-------------------------------------------------------
g|-------------------------------------------------------
d|------------------------7---------10b--7--------7------
a|--------------------7------------------------10--------
e|--5----5----8--9---------------------------------------

Chorus
e|-------------------------------------------------------
b|-------------------------------------------------------
g|----9------------------------------9-----7---7/9---9---
d|----9---------5------/7------------9-----7---7/9---9---
a|----7---------5------/7------------7-----5---5/7---7---
e|--------------3------/5--------------------------------

Riff 1   6x
Riff 2   2x
Riff 1   2x
Chorus   3x
Riff 1   6x
Riff 2   2x
Riff 1   2x
Chorus   3x
Riff 1   3x
Chorus with some variations
Riff 1   2x
Chorus   9x
Fade

Nazareth - Hair Of The Dog клип