» » Deicide - Forever Hate You аккорды

Deicide - Forever Hate You аккорды

Deicide - Forever Hate You аккорды и слова для гитары. Другие песни с аккордами исполнителя Deicide.

Forever Hate You by Deicide
From the CD-Insineratehymn
Tabbed by [email protected]

Recorded in Drop-D tunning
Tabbed in Eb

****=Palm Mute
p=Pulloff
/=Slide

Intro Riff 1(fast)                       (Fill 1)played on 2x & 4x w/Riff 1
|----------------------------------------|----------------|
|----------------------------------------|----------------|
|--------------------------------------7-|-----------7----|
|-----------pp----------pp----------pp-7-|-----------7----|
|-55555555-865-5555555-865-5555555-865-5-|-----------5----|
|----------------------------------------|-555555555—-----|
PM********     *******     *******         ******** *

Riff 2 (Verse)w/Fill 1 on 2x & 4x (slower tempo)
|-----------------------------------------------|
|-----------------------------------------------|
|---------------------------------------------7-|
|------------pp------------pp------------pp---7-|
|-5-5-5-5-5-865-5-5-5-5-5-865-5-5-5-5-5-865---5-|
|-----------------------------------------------|
PM* * * * *     * * * * *     * * * * *


Riff 3 w/words(forever hate you)   Riff 4 Played over solo
|-------------------------------|----------------------------------------|
|-------------------------------|----------------------------------------|
|----------------------7--------|----------------------------------------|
|----------------------7--------|----------------------------------------|
|-7-7-7-7-7-7-7-7-7-7--5--------|--3-3-3-3-3-3-3-3-3-3-3-3-3-3-3-3-3-3-3-|
|-5-5-5-5-5-5-5-5-5-5-----------|--1-1-1-1-1-1-1-1-1-1-1-1-1-1-1-1-1-1-1-|
PM* * * * * * * * * *              * * * * * * * * * * * * * * * * * * *

Riff 4 when glen starts to sing-(misery from the time)
|-------------------------------------------------------------------|
|------------------------------Slide--------------------------------|
|-------------------------------12-------------------------------7-|
|--------------457--------------12--------------457--------------7-|
|-33-2-454-876-235-33-2-454-876-10-33-2-454-876-235-33-2-454-876-5-|
|-11-0-232-654-----11-0-232-654-----11-0-232-654-----11-0-232-654—--|
PM** * *** *** *** ** * *** ***     ** * *** *** *** ** * *** ***

Repeat Intro Riff

Deicide - Forever Hate You клип