» » Def Leppard - Two Steps Behind аккорды

Def Leppard - Two Steps Behind аккорды

Def Leppard - Two Steps Behind аккорды и слова для гитары. Другие песни с аккордами исполнителя Def Leppard.

Two steps behind – Def Leppard (Last action hero soundtrack)
Tabbed by Slush
Standard tuning

Intro and pre-solo (play only first 3 strings)
A D G Dsus4
A D G D

Verse and rhythm over solo
A D G D x 2
A D E D x 2

Bridge
F#m D G E

Chorus
A D E D x 2
A D E G D

Solo (somewhat simplistic but works damn well)
e ------------------------------------------------
B ------------------------------------------------
G ------9---9-9-9--8-8--9--8----------------------
D –9/11------------------------9br—-9-9--7-9-9/11-
A ------------------------------------------------
E ------------------------------------------------

e -------12-12--10-10-10-9-9--7-------------10-10-7-7-7-7-----------
B –12/14-------------------------10—-10/12----------------12-12-----
G --------------------------------------------------------------7---
D ----------------------------------------------------------------9-
A-------------------------------------------------------------------
E ------------------------------------------------------------------

e ------------------------------------2-2----------------------------
B –12b—12b—-12r-10--------------------3-3----------------------------
G -----------------11-11--------------2-2----------------------------
D ------------------------------6-9-7-----7--9--9/11--11-11--9-9-9-9-
A ------------------------7-7-7--------------------------------------
E -------------------------------------------------------------------

e --------------------------------------------------------------
B --------------------------------------------------------------
G -7-7--9--7--------10----10-12-10-12-10-12br-12br--10-12-12/14-
D -----------9-11-9----11---------------------------------------
A --------------------------------------------------------------
E --------------------------------------------------------------

Outro
A D G D x 2
A

Lick just before last A chord.
I think it’s the bass but what the heck, play it too.
e ---------------------0-
B --------------------2--
G -------------------2---
D ------2-----------2----
A –2/4-----42-0---0-----
E ------------------------
^---^--->A played VERY slowly

Def Leppard - Two Steps Behind клип