» » Bitard671 - Верни мой 2007 (ft FIVESIXEIGHT) аккорды

Bitard671 - Верни мой 2007 (ft FIVESIXEIGHT) аккорды

Bitard671 - Верни мой 2007 (ft FIVESIXEIGHT) аккорды и слова для гитары. Другие песни с аккордами исполнителя Bitard671.

Куплет:
Cm
Белыми кедами по обломкам крыш
F5  G#5
Войду в твое окно, я знаю, ты не спишь.
Cm
Пусть будет как прежде, пусть будет как раньше.
F5      G#5
Помнишь цветные шнурки, что впитали наше счастье?

Припев:
G#5                  Cm
Верни мой две тысячи седьмой,
F5                        D#5 A#
Чтобы я смог исцелить свои раны.
G#5                  Cm
Верни мой две тысячи седьмой,
F5                        D#5 A#
На этот раз бы сделал все как надо.

Куплет 2:
Cm
Возвращая обломки наших надежд,
F5  G#5
Переношу себя в прошлое канувших дней
Cm
У нас получится снова вернуться назад
F5 G#5
Просто, поверь мне и нашим сердцам

Припев:
G#sus2                                    Csus2
e|--------------------------------------------------------------------------
b|--------------------------------------------------------------------------
g|-------------------------------------------------7--------------------7---
D|---------8------------------8----------------5------5----------5--------5-
A|-------6------6--------6--------6-------3----------------3----------------
E|--4-----------------4-----------------------------------------------------

Fsus2                                D#sus2        A#
e|---------------------------------------------------------------------------
b|---------------------------------------------------------------------------
g|---------------------------------------------------------------------------
D|----------5----------------5--------------------10--------------------7----
A|-------3------3-------3--------3------------8--------8----------8--------8-
E|--1----------------1--------------------6--------------------5-------------

Припев:
G#5                  Cm
Верни мой две тысячи седьмой,
F5                        D#5 A#
Чтобы я смог исцелить свои раны.
G#5                  Cm
Верни мой две тысячи седьмой,
F5                        D#5 A#
На этот раз бы сделал все как надо.

Bitard671 - Верни мой 2007 (ft FIVESIXEIGHT) клип