» » Cradle Of Filth - Nevermore аккорды

Cradle Of Filth - Nevermore аккорды

Cradle Of Filth - Nevermore аккорды и слова для гитары. Другие песни с аккордами исполнителя Cradle Of Filth.

song:nevermore
band:cradel of fith


intro / chorus:
---------------------------------------------------------------------|
---------------------------------------------------------------------|
---2-----5--5--5------2----5--5--5-----------------------------------|
-2---2--3--3--3-----2---2-3--3--3-----2h3h2--------------------------|
---------------------------------------------3-2/3/2--s-5-3----------|
---------------------------------------------------------------------|


riff:
------------------------------------------------------------------------|
-----3-------3-------3-------3-------3-------3-------3----------3-------|
---2---2---2---2---2---2---2---2---2---2---2---2---2---2------2---2-----|
-0-------0-------0-------0-------1-------1-------1-------1--0-------0---|..
------------------------------------------------------------------------|
------------------------------------------------------------------------|


end:
------------------------------------------------------------------------|
------------------------------------------------------------------------|
------------------------------------------------------------------------|
---2-0---------------------------------2-0----------------------2-3-2---|
-0-----3-5-3-0h2h3-3-5-3-2-3-2---0----0-----3-5-3-0h2h3-3-5-3-2---------|
------------------------------3-----------------------------------------|

Cradle Of Filth - Nevermore клип