» » Elvis Presley - Hound Dog (bass) аккорды

Elvis Presley - Hound Dog (bass) аккорды

Elvis Presley - Hound Dog (bass) аккорды и слова для гитары. Другие песни с аккордами исполнителя Elvis Presley.

Play 4x:
G------------------------------------------------------
D---------7--------------------------------------------
A----7-10----------------------------------------------
E--8---------------------------------------------------

Then 2x:
G---------7---------------------------------------------
D----7-10-----------------------------------------------
A--8----------------------------------------------------
E-------------------------------------------------------

Play 2x:
G------------------------------------------------------
D---------7--------------------------------------------
A----7-10----------------------------------------------
E--8---------------------------------------------------

Then play this once:
G----------9----------7----------------
D-----9-12-------7-10------------------
A--10----------8-----------------------
E--------------------------------------

Elvis Presley - Hound Dog (bass) клип