» » Cheap Trick - Were All Allright аккорды

Cheap Trick - Were All Allright аккорды

Cheap Trick - Were All Allright аккорды и слова для гитары. Другие песни с аккордами исполнителя Cheap Trick.

my friend tabbed this,


Intro P.1          P.2
1-2-2-2-------------------1
1-3-3-3-------------------1
1-2-2-2-------------------1
1-------------------------1
1-----------------------6-1
1-----------0-2-3-4-5-6---1

Riff 1
1-2-3-2---------------1
1-3-3-3---------------1
1-2-2-2---------------1
1---------------------1
1-------------------6-1
1-------0-2-3-4-5-6---1

Verse x 2
1-2--0--3--2--2--2--0--2---1
1--3--3--3--3--3--3--3--3--1
1---2--2--2--2--2--2--2--2-1
1--------------------------1
1--------------------------1
1--------------------------1

Chorus
1-2-2---------1
1-3-3-2-2-----1
1-2-2-2-2-----1
1-----2-2-2-2-1
1---------2-2-1
1-------------1

Bridge P. 1 x 2
1-------1-------1
1-1-1-1---------1
1-2-2-2-2-1-1-1-1
1-2-2-2-3-2-2-2-1
1---------2-2-2-1
1---------------1

Bridge P. 2 x 4
1-2-2--2---1
1-3--3--3--1
1-2---2--2-1
1----------1
1----------1
1----------1

Bridge P. 3
1-2-2-2-3-2--2-2-2-3-2--2-2-2-3-2-2------1
1-3-3-3-3-3--3-3-3-3-3--3-3-3-3-3-3-hold-1
1-2-2-2-2-2--2-2-2-2-2--2-2-2-2-2-2------1
1----------------------------------------1
1----------------------------------------1
1----------------------------------------1

Bridge P. 4
1-2----3---2-2----2----2-2----3---3-2------1
1-3--3--3--3-1--1--1---1-3--3--3--3-3-hold-1
1-2-2-2--2-2-2-2-2--2--2-2-2-2--2-2-2------1
1---------0----------0---------------------1
1------------------------------------------1
1------------------------------------------1

Bridge p.5
1-2-1
1-3-1
1-2-1
1---1
1---1
1---1

Order of Parts:
1. Intro P. 1
2. Intro P. 2
3. Riff 1
4. Verse
5. Chorus
6. Riff 1
7. Verse
8. Chorus
9. Bridge P. 1
10. Bridge P. 2
11. Bridge P. 3
12. Riff 1
13. Bridge P. 4
14. Bridge P. 5
15. Chorus
16. Bridge P. 1
17. Bridge P. 2
18. Bridge P. 3
19. Intro P. 2
20. Riff 1

Lyrics

bridge 5 after every line

Hanging out
down the street
same old thing we did last week
not a thing to do
but talk to you
not a thing to do
out in the street
mom and dad
they live upstairs
the musics loud
so we dont care
you chose now
the rocks news now
we're still rockin'
in wisconsin
were all all right x2
(solo thing)
i'd steal a car
and drive on down
pick you up
and we'll drive around
not a thing to do
but talk to you
not a thing to do
this new rockin'
in wisconsin
we're all all right x2
HELLO WISCONSIN!

and thats it

contact me at [email protected]

Cheap Trick - Were All Allright клип