» » Emperor - Inno Opus Satana аккорды

Emperor - Inno Opus Satana аккорды

Emperor - Inno Opus Satana аккорды и слова для гитары. Другие песни с аккордами исполнителя Emperor.

 ---------------------------------------------------------------------
Inno /opus satana by emperor

Kai Huovinen

Any corrections or feed back or emperor notes can be sent to :

[email protected]

I only put lead guitars on tabs, so listen those backrounds yourself.
They are all quite

easy to catch except the beginning so i put it along

|-----------------------------------------------------------|
|-----------------------------------------------------------|
|-----------------------------------------------------------|
|-----9-109-12109-------------------------------------------|
|-7-10------------12118---8----8----8---8---8---------------|
|-----------------------10-109--109--109-109-109777777101010|
|
|-----------------------------------------------------------|
|-----------------------------------------------------------|
|-----------------------------------------------------------|
|-----------------------------------------------------------|
|-777777------7-7-7-4-4-4-----------------------2-2-2-5-5-5-|
|-------777777------------4-4-4-4-4-4-4-4-4-4-4-------------|

|--------------------------------------|
|--------------------------------------|
|--------------------------------------|
|------88888899999912-12-118-9-8-119-8-|
|999999--------------------------------|
|--------------------------------------|
|
|--------------------------------------|
|--------------------------------------|
|------7-7-7-4-4-4-7-7-7---3-4-3-6-4-3-| guitar 2 plays the end with steel string
|4-4-4---------------------------------| so it is probably like this
|--------------------------------------|
|--------------------------------------|

( horn sound on opus satana version )

|----------------------------|
|----------------------------|
|-----------5-4---------8----|
|-------9-------7-6---6------|
|-7---7----------------------|
|----------------------------|


|------------------------------------------------------------------------|
|------------------------------------------------------------------7-7-7-|
|-------------------------------------------9-9-9------9-9-9-------------|
|-------9-9-9-------7-7-7-------9-9-9-7-7-7-------5-5-5------5-5-5-------|
|-7-7-7-------7-7-7-------7-7-7------------------------------------------|
|------------------------------------------------------------------------|

|-------------------------|
|-------------------------|
|-4-4-4-4-4-4-4-4-4-4-4-4-|
|-4-4-4-4-4-4-4-4-4-4-4-4-|
|-2-2-2-4-4-4-5-5-5-6-6-6-|
|-------------------------|

|-------------------------------------------------|
|-------------------5-5-5-------------------5-5-5-|
|-------------5-5-5-------------------5-5-5-------|
|-------2-2-2-------------------2-2-2-------------|
|-3-3-3-------------------0-0-0-------------------|
|-------------------------------------------------|

|-------------------------------------------------|
|-------------------------------------------------|
|-------------4-4-4-2-2-2-------------------------|
|-------4-4-4-------------------------------------|
|-2-2-2-------------------------------------------|
|-------------------------------------------------|
|
|-------------------------------------------------|
|-------------------------------------------------| listen the strumming out its quite easy
|-0-----------------------------------------------|
|-9-----------------------------------------------|
|-9-----------------------------------------------|
|-7-----------------------------------------------|

|--------------------------------------------------|
|--------------------------------------------------|
|---------0-----------0-----------0------------0---|
|-------2---2-------2---2-------2---2--------2---2-|
|-----2-----------0-----------2------------0-------|
|-0-----------1-----------0------------2-----------|

|--------------------------------------------------|
|-----8------------15^17^15------------------------|The lead guitars, listen the strumming again
|-9---7---9---7------------------------------------|
|-9---7---9---10-----------------------------------|
|-7---8---7---9------------------------------------|
|--------------------------------------------------|

|--------------------------------------------------|
|--------------------------------------------------|
|---------0-----------0-----------0------------0---|
|-------2---2-------2---2-------2---2--------2---2-|
|-----2-----------0-----------2------------0-------| and the acoustic
|-0-----------1-----------0------------2-----------|

synth melody on opus satana version

|-------------------------------|
|-------------------------------|
|-------------------------------|
|-----------------5---2---------|
|-2-3-5-7-2-3-5-7-------3---5-2-|
|-------------------------------|

The chords at end you can surely figure it out how it goes

|--------|
|--------|
|--------|
|-2/7--7-|
|-0----8-|
|--------|

Emperor - Inno Opus Satana клип