» » Cradle Of Filth - Gothic Romance аккорды

Cradle Of Filth - Gothic Romance аккорды

Cradle Of Filth - Gothic Romance аккорды и слова для гитары. Другие песни с аккордами исполнителя Cradle Of Filth.

Tune down one whole step.

Riff 1
x 1
[-------------------------------------------------
-------------------------------------------------
-9-----------------------8-----------------------
-9-----------------------8-----------8-----------
-7-----------------------6-----------8-----------
-------------------------------------6-----------]
1 + a 2 + a 3 + a 4 + a 1 + a 2 + a 3 + a 4 + a

[-------------------------------------------------
-------------------------------------------------
-9-----------------------10----------------------
-9-----------------------10----------8-----------
-7-----------------------8-----------8-----------
-------------------------------------6-----------]
1 + a 2 + a 3 + a 4 + a 1 + a 2 + a 3 + a 4 + a

Riff 2
[-------------------------------------------------
-------------------------------------------------
-9-9-9-9-9-9-9-9-9-9-9-9-8-8-8-8-8-8-------------
-9-9-9-9-9-9-9-9-9-9-9-9-8-8-8-8-8-8-8-8-8-8-8-8-
-7-7-7-7-7-7-7-7-7-7-7-7-6-6-6-6-6-6-8-8-8-8-8-8-
-------------------------------------6-6-6-6-6-6-]
1 + a 2 + a 3 + a 4 + a 1 + a 2 + a 3 + a 4 + a

[-------------------------------------------------------
-------------------------------------------------------
-9-9-9-9-9-9-9-9-9-9-9-9-10-10-10-10-10-10-------------
-9-9-9-9-9-9-9-9-9-9-9-9-10-10-10-10-10-10-8-8-8-8-8-8-
-7-7-7-7-7-7-7-7-7-7-7-7-8--8--8--8--8--8--8-8-8-8-8-8-
-------------------------------------------6-6-6-6-6-6-]
1 + a 2 + a 3 + a 4 + a 1 + a 2 + a 3 + a 4 + a

Riff 3
x 1 /w end 1
x 1 /w end 2
-------------------------------------------------
-------------------------------------------6/10--
-------------------------------------7/10--------
-7v----------------5-7---------7/12--------------
-----------------------8-5-----------------------
-------------------------------------------------

-------------------------------------------------
-------------------------------------------------
-7-----------------------------------------------
-7-----------------------10----------------------
-5-----------------------10----------------------
-------------------------8-----------------------
1 + a 2 + a 3 + a 4 + a 1 + a 2 + a 3 + a 4 + a

End 1
-------------------------------------------------
-------------------6-5---5-------6-5-------------
-----------------------7-------------------------
-8-------8-7-5-----------------------7-----------
-8-------8-7-5-----------------------------------
-6-------6-5-3-----------------------------------

-------------------------------------------------
-------------------------------------------------
-------------------------7-----------------------
-8-------8-7-5-----------7-----------------------
-8-------8-7-5-----------5-----------------------
-6-------6-5-3-----------------------------------
1 + a 2 + a 3 + a 4 + a 1 + a 2 + a 3 + a 4 + a

End 2
-------------------------------------------------
-------------------6-5---5-----------6-----5-----
-----------------------7-------------------------
-8-------8-7-5-----------------------------------
-8-------8-7-5-----------------------------------
-6-------6-5-3-----------------------------------

-------------------------------------------------
-------------------------------------------------
-------------------------------------------------
-8-------8-7-5-----------7-----------------------
-8-------8-7-5-----------7-----------------------
-6-------6-5-3-----------5-----------------------
1 + a 2 + a 3 + a 4 + a 1 + a 2 + a 3 + a 4 + a

Riff 4
---------------------------------------------------------
---------------------------------------------------------
---------------------------------------------------------
---------------------------------------------------------
---------------------------------4-----------5-----4-----
-8-----------------7-----8--7----------------------------

---------------------------------------------------------
---------------------------------------------------------
---------------------------------------------------------
-10-10-10-10-10-10-9-9-9-10-10-9-7-7-7-7-7-7-7-7-7-7-7-7-
-10-10-10-10-10-10-9-9-9-10-10-9-7-7-7-7-7-7-7-7-7-7-7-7-
-8--8--8--8--8--8--7-7-7-8--8--7-5-5-5-5-5-5-5-5-5-5-5-7-
1 + a 2 + a 3 + a 4 + a 1 + a 2 + a 3 + a 4 + a

---------------------------------------------------------
---------------------------------------------------------
---------------------------------------------------------
---------------------------------------------------------
---------------------------------4-----------5-----4-5-4-
-8-----------------7-----8--7----------------------------

---------------------------------------------------------
---------------------------------------------------------
---------------------------------------------------------
-10-10-10-10-10-10-9-9-9-10-10-9-7-7-7-7-7-7-7-7-7-7-7-7-
-10-10-10-10-10-10-9-9-9-10-10-9-7-7-7-7-7-7-7-7-7-7-7-7-
-8--8--8--8--8--8--7-7-7-8--8--7-5-5-5-5-5-5-5-5-5-5-5-7-
1 + a 2 + a 3 + a 4 + a 1 + a 2 + a 3 + a 4 + a

---------------------------------------------------------
---------------------------------------------------------
---------------------------------------------------------
-10-10-10-10-10-10-9-9-9-10-10-9-7-7-7-7-7-7-7-7-7-7-7-7-
-10-10-10-10-10-10-9-9-9-10-10-9-7-7-7-7-7-7-7-7-7-7-7-7-
-8--8--8--8--8--8--7-7-7-8--8--7-5-5-5-5-5-5-5-5-5-5-5-7-

---------------------------------------------------------
---------------------------------------------------------
---------------------------------------------------------
-10-10-10-10-10-10-9-9-9-10-10-9-7-7-7-7-7-7-7-7-7-7-7-7-
-10-10-10-10-10-10-9-9-9-10-10-9-7-7-7-7-7-7-7-7-7-7-7-7-
-8--8--8--8--8--8--7-7-7-8--8--7-5-5-5-5-5-5-5-5-5-5-5-7-
1 + a 2 + a 3 + a 4 + a 1 + a 2 + a 3 + a 4 + a

----------------------------------
----------------------------------
----------------------------------
-10-10-10-10-10-10-10-9-----6---9-
-10-10-10-10-10-10-10-9-----6---9-
-8--8--8--8--8--8--8--7-----8---7-

----------------------------------
----------------------------------
----------------------------------
-10-10-10-10-10-10-10-9-----6---9-
-10-10-10-10-10-10-10-9-----6---9-
-8--8--8--8--8--8--8--7-----8---7-
1 + a 2 e + a 3 + a 4 + a

Riff 3 x 2 /w end 1
Riff 2 x 2

Riff 5
x 1
-------------------------------------------------
-------------------------------------------------
-------------------------------------------------
-------------------------10----------------------
-------------8-8-8-8-8-8-10----------5-----5-----
-5-5-5-5-5-5-------------8-------------8-7---8-7-

-------------------------------------------------
-------------------------------------------------
-------------------------------------------------
-------------------------10----------------------
-------------------------10----------5-----5-----
-------------------------8-------------8-7---8-7-
1 + a 2 + a 3 + a 4 + a 1 + a 2 + a 3 + a 4 + a

[-------------------------------------------------
-------------------------------------------------
-------------------------------------------------
-------------------------------------------5-----
-------------8-8-8-8-8-8-------------5-------8-7-
-5-5-5-5-5-5-------------8-8-8-8-8-8---8-7-------]
1 + a 2 + a 3 + a 4 + a 1 + a 2 + a 3 + a 4 + a

[-------------------------------------------------
-------------------------------------------------
-------------------------------------------------
-------------8-8-8-8-8-8-------------5-----5-----
-5-5-5-5-5-5-------------8-8-8-8-8-8---8-7---8-7-
-------------------------------------------------]
1 + a 2 + a 3 + a 4 + a 1 + a 2 + a 3 + a 4 + a

[-------------------------------------------------
-------------------------------------------------
-------------------------------------------5-----
-------------8-8-8-8-8-8-------------5-------8-7-
-5-5-5-5-5-5-------------8-8-8-8-8-8---8-7-------
-------------------------------------------------]
1 + a 2 + a 3 + a 4 + a 1 + a 2 + a 3 + a 4 + a

[-------------------------------------------------
-------------------------------------------------
-------------------------------------------------
-------------------------------------------------
-------------8-8-8-8-8-8-------------5-----5-----
-5-5-5-5-5-5-------------8-8-8-8-8-8---8-7---8-7-]
1 + a 2 + a 3 + a 4 + a 1 + a 2 + a 3 + a 4 + a

[-------------------------------------------------
-------------------------------------------------
-------------------------------------------------
-------------------------------------------5-----
-------------8-8-8-8-8-8-------------5-------8-7-
-5-5-5-5-5-5-------------8-8-8-8-8-8---8-7-------]
1 + a 2 + a 3 + a 4 + a 1 + a 2 + a 3 + a 4 + a

Riff 6
x 4
[-----------------------------------------------------------------
-----------------------------------------------------------------
-7-------------------------------7-----------------------8-------
-7-------------------------------7---------------10------8-------
-5---6-5-----5-------------------5---------------10------6-------
---------8-----8-6-8-6-3-5-6-5-------------------8---------------]
1 + 2 + 3 + 4 + 1 + 2 + 3 + 4 + 1 + 2 + 3 + 4 + 1 + 2 + 3 + 4 +

Riff 7
x 4
[----------------------------
----------------------------
-7---9---10--9-10-9---10--9-
-7---9---10--9-10-9---10--9-
-5---7---8---7-8--7---8---7-
----------------------------]

Riff 8
x 4
[-------------------------------------
-------------------------------------
-------------------------------------
-------------------------------------
-------------------------------------
-0-2-3---0-2-3---0-3-0-2-3-0-5-6-5-3-

-------------------------------------
-------------------------------------
-------------------------------------
-------------------------------------
-------------------------------------
-0-2-3---0-2-3---0-3-0-2-3---6-6-6-6-]

Riff 2 /w 4 strums per beat instead of 3

Riff 9
x 1
[-----------------------
-----------------------
-----------------------
-----------------------
---5-----5-----5-----5-
-5-----5-----5-----5---]
x 3
---------------------------------
---------------------------------
---------------------------------
---------------------------------
---5---8-8-7-7-----5-8-8-7-7-5-5-
-5---------------5---------------

---------------------------------
---------------------------------
---------------------------------
-------7-7-5-5-------7-7-5-5-----
---5---------------5---------8-8-
-5---------------5---------------
x 1
---------------------
---------------------
---------------------
---5-8-8-7-7-5-5-4-5-
-5-------------------

---------------------
---------------------
-----7-7-5-5---------
---5---------8-8-7-8-
-5-------------------

Riff 10
[----------------------------------------
----------------------------------------
----------------------7/10---9-10-97-7-
----------------------------------------
-5---8---7-8-7p5-5v---------------------
----------------------------------------]

Cradle Of Filth - Gothic Romance клип