» » Emperor - The Oath аккорды

Emperor - The Oath аккорды

Emperor - The Oath аккорды и слова для гитары. Другие песни с аккордами исполнителя Emperor.

Emperor(The Oath)

Tuned in E flat
It could be in E too but my guitar is tuned to E Flat.
No matter what tuning its in this should help you out.

Intro
let ring
|---3-------------|---3-------------8---|-----7-------8-----8-----|
|-------6---5---6-|-------6---5^6-8---8-|----8--8-------8-----7^8-|
|-----------------|---------------------|---9-----9-------9-------|
|-----------------|---------------------|--9----------------------|
|-3---3---3---3---|-3---3---3-----------|-7---------7-------------|
|-----------------|---------------------|-------------------------|

|-------7----------10-|
|---------8------8----|
|-----9---------------|
|---9-----------------|
|-7---------7---------|
|---------------------|
repeat same as above half step down
|---------6-|
|-------7---|
|-----8-----|
|---8-------| ect.
|-6---------|
|-----------|

|---------6-----6-------6-----6---|
|-------7---7-7---7---7---7-7---7-|
|-----8-------------8-------------|
|---8-----------------------------|
|-6-------------------------------|
|---------------------------------|

let ring moderate speed
|--------------|
|-------6------|
|-----7--------|
|---7----------|
|-5------------|
|--------------|
Main distortion
|----------------------|
|----------------------|
|----------------------|
|-4------4------5------|
|-2-3-~--2-3-~--3-3-~--|
|---1-~----1-~----1-~--|
Mod. speed dist
1             2
|-------------|-------------|
|-------------|-------------|
|-------------|-------------|
|-3-----------|-3-----------|  times 4
|---4-3-------|---3-4-------|
|-------1-3-4-|-------1-3-4-|

1 times 1
already full step up comes down slow
|-`20-----|
|---------|
|---------|
|---------|
|---------|
|---------|
[3
|-----------|
|-----------|
|-----------|
|-----------| 1&2 times 4
|----7----7-|
|-7---6---|

|-------------|
|---1^0-------|
|-------------|
|-------1-2-1-|  times 4
|-0-----------|
|-------------|]

[3] times 2

feed back ect.
horns
|-5-|
ring dist g5 chord |-3-|
couple times
goes to next song

you can listen to it to see exactly how this goes
and there is some other faded dist parts some where
in there. It's mostly right. corrections are welcome.

Emperor - The Oath клип