» » Emperor - Night Of The Graveless Souls аккорды

Emperor - Night Of The Graveless Souls аккорды

Emperor - Night Of The Graveless Souls аккорды и слова для гитары. Другие песни с аккордами исполнителя Emperor.

-=-=-==-=-=-=-=-=-=-==-=-=-=-=-=-=-==-=-=-=-=-=-=-==-=-=-=-=-=-=-==-=-=-=-=-=-=-==-=-=-=-=-=-
Artist: .:Emperor:.
Title: Night of the Graveless Souls
Transcribed by: .:Perfect Vision:. ( [email protected] - https://pureholocaust.free.fr
https://goatlord.free.fr - https://magane.free.fr )
-=-=-==-=-=-=-=-=-=-==-=-=-=-=-=-=-==-=-=-=-=-=-=-==-=-=-=-=-=-=-==-=-=-=-=-=-=-==-=-=-=-=-=-



.:Riff I:.
|-------|
|-------|
|-------|
|-2-3-6-|
|-2-3-6-|
|-0-1-4-|


.:Riff II:.
|---------|
|---------|
|---7-----|
|-2-7-6-5-|
|-2-5-6-5-|
|-0---4-3-|


.:Riff III:.
|-----------------|
|-----------------|
|-----------------|
|-4/5/8/7/4/5/3/4-|
|-4/5/8/7/4/5/3/4-|
|-2/3/6/5/2/3/1/2-|



.:Riff IV:.
|-------|-------|
|---6---|---5---|
|-4-6-5-|-3-5-4-|
|-4-4-5-|-3-3-4-|
|-2---3-|-1---2-|
|-------|-------|

Emperor - Night Of The Graveless Souls клип