» » Chicosci - Shallow Graves аккорды

Chicosci - Shallow Graves аккорды

Chicosci - Shallow Graves аккорды и слова для гитары. Другие песни с аккордами исполнителя Chicosci.

tabber: ulo ([email protected])
song:   shallow graves
band:   chicosci
album:  icarus
tuning: EADGBe


intro:

guitars 1&2:
|-----------------|-----------------|-----------------|-----------------|
|-----------------|-----------------|-----------------|-----------------|
|-----------------|-----------------|-----------------|-----------------|(4x)
|-----------------|-----------------|-----------------|-----------------|
|-3-3-3-6-6-6-5-5-|-3-3-3-6-6-6-5-5-|-3-3-3-6-6-6-5-5-|-3-3-3-6-6-6-5-5-|
|-1-1-1-4-4-4-3-3-|-1-1-1-4-4-4-3-3-|-1-1-1-4-4-4-3-3-|-1-1-1-4-4-4-3-3-|

guitar 1:
|-----------------|-----------------|-----------------|-----------------|
|-----------------|-----------------|-----------------|-----------------|
|-----------------|-----------------|-----------------|-----------------|(2x)
|-----------------|-----------------|-----------------|-----------------|
|-3-3-3-6-6-6-5-5-|-3-3-3-6-6-6-5-5-|-3-3-3-6-6-6-5-5-|-3-3-3-6-6-6-5-5-|
|-1-1-1-4-4-4-3-3-|-1-1-1-4-4-4-3-3-|-1-1-1-4-4-4-3-3-|-1-1-1-4-4-4-3-3-|

guitar 2:
|-----------------|-----------------|-----------------|-----------------|
|-----------------|-----------------|-----------------|-----------------|
|-----------------|-----------------|-----------------|-----------------|(2x)
|-7s10------------|-7s10------------|-7s10------------|-7s10------------|
|-------11-11-10--|-------11-11-10--|-------11-11-10--|-------11-11-10--|
|-----------------|-----------------|-----------------|-----------------|


verse 1:

guitar 1:
pm..........       ...........       ...........       ...........
|-----------------|-----------------|-----------------|-----------------|
|-----------------|-----------------|-----------------|-----------------|
|-------------7s8-|-------------7s8-|-------------7s8-|-------------7s8-|(2x)
|-------6-6-6-9s10|-------6-6-6-9s10|-------6-6-6-9s10|-------6-6-6-9s10|
|-8-8-8-----------|-8-8-8-----------|-8-8-8-----------|-8-8-8-----------|
|-----------------|-----------------|-----------------|-----------------|

guitar 2:
pm..   .           ...   .           ...   .           ...   .
|-----------------|-----------------|-----------------|-----------------|
|-----------------|-----------------|-----------------|-----------------|
|-4s5-----5---7s8-|-4s5-----5---7s8-|-4s5-----5---7s8-|-4s5-----5---7s8-|(2x)
|-----6-6---6-----|-----6-6---6-----|-----6-6---6-----|-----6-6---6-----|
|-----------------|-----------------|-----------------|-----------------|
|-----------------|-----------------|-----------------|-----------------|


chorus:

guitars 1&2:
|-----------------|-----------------|-----------------|-----------------|
|-----------------|-----------------|-----------------|-----------------|
|-----------------|-----------------|-----------------|-----------------|(2x)
|-----------------|-----------------|-----------------|-----------------|
|-3-3-3-6-6-6-5-5-|-3-3-3-6-6-6-5-5-|-3-3-3-6-6-6-5-5-|-3-3-3-6-6-6-5-5-|
|-1-1-1-4-4-4-3-3-|-1-1-1-4-4-4-3-3-|-1-1-1-4-4-4-3-3-|-1-1-1-4-4-4-3-3-|

guitars 1&2:
|-----------------|-----------------|-----------------|-----------------|
|-----------------|-----------------|-----------------|-----------------|
|-----------------|-----------------|-----------------|-----------------|
|-8---------------|-----------------|-----------------|-----------------|
|-6-(let ring)----|-----------------|-----------------|-----------------|
|-----------------|-----------------|-----------------|-----------------|

guitars 1&2:
pm....................................................................
|-----------------|-----------------|-----------------|-----------------|
|-----------------|-----------------|-----------------|-----------------|
|-----------------|-----------------|-----------------|-----------------|
|-----------------|-----------------|-----------------|-----------------|
|-3-3-3-6-6-6-5-5-|-3-3-3-6-6-6-5-5-|-3-3-3-6-6-6-5-5-|-3-3-3-6-6-6-5-5-|
|-1-1-1-4-4-4-3-3-|-1-1-1-4-4-4-3-3-|-1-1-1-4-4-4-3-3-|-1-1-1-4-4-4-3-3-|

guitars 1&2:
|-----------------|-----------------|-----------------|-----------------|
|-----------------|-----------------|-----------------|-----------------|
|-----------------|-----------------|-----------------|-----------------|
|-8---------------|-----------------|-----------------|-----------------|
|-6-(let ring)----|-----------------|-----------------|-----------------|
|-----------------|-----------------|-----------------|-----------------|


verse 2:

guitar 1:
pm..........       ...........       ...........       ...........
|-----------------|-----------------|-----------------|-----------------|
|-----------------|-----------------|-----------------|-----------------|
|-------------7s8-|-------------7s8-|-------------7s8-|-------------7s8-|
|-------6-6-6-9s10|-------6-6-6-9s10|-------6-6-6-9s10|-------6-6-6-9s10|
|-8-8-8-----------|-8-8-8-----------|-8-8-8-----------|-8-8-8-----------|
|-----------------|-----------------|-----------------|-----------------|

guitar 2:
pm..   .           ...   .           ...   .           ...   .
|-----------------|-----------------|-----------------|-----------------|
|-----------------|-----------------|-----------------|-----------------|
|-4s5-----5---7s8-|-4s5-----5---7s8-|-4s5-----5---7s8-|-4s5-----5---7s8-|
|-----6-6---6-----|-----6-6---6-----|-----6-6---6-----|-----6-6---6-----|
|-----------------|-----------------|-----------------|-----------------|
|-----------------|-----------------|-----------------|-----------------|

guitar 1:
pm..........       ...........
|-----------------|-----------------|-----------------|-----------------|
|-----------------|-----------------|-----------------|-----------------|
|-------------7s8-|-------------7s8-|-----------------|-----------------|
|-------6-6-6-9s10|-------6-6-6-9s10|-----------------|-----------------|
|-8-8-8-----------|-8-8-8-----------|-3-3-3-6-6-6-5-5-|-3-3-3-6-6-6-5-5-|
|-----------------|-----------------|-1-1-1-4-4-4-3-3-|-1-1-1-4-4-4-3-3-|

guitar 2:
pm..   .           ...   .           ...   .           ...   .
|-----------------|-----------------|-----------------|-----------------|
|-----------------|-----------------|-----------------|-----------------|
|-4s5-----5---7s8-|-4s5-----5---7s8-|-4s5-----5---7s8-|-4s5-----5---7s8-|
|-----6-6---6-----|-----6-6---6-----|-----6-6---6-----|-----6-6---6-----|
|-----------------|-----------------|-----------------|-----------------|
|-----------------|-----------------|-----------------|-----------------|


chorus:

guitars 1&2:
pm....................................................................
|-----------------|-----------------|-----------------|-----------------|
|-----------------|-----------------|-----------------|-----------------|
|-----------------|-----------------|-----------------|-----------------|(2x)
|-----------------|-----------------|-----------------|-----------------|
|-3-3-3-6-6-6-5-5-|-3-3-3-6-6-6-5-5-|-3-3-3-6-6-6-5-5-|-3-3-3-6-6-6-5-5-|
|-1-1-1-4-4-4-3-3-|-1-1-1-4-4-4-3-3-|-1-1-1-4-4-4-3-3-|-1-1-1-4-4-4-3-3-|

guitars 1&2:
|-----------------|-----------------|-----------------|-----------------|
|-----------------|-----------------|-----------------|-----------------|
|-----------------|-----------------|-----------------|-----------------|
|-8---------------|-----------------|-----------------|-----------------|
|-6-(let ring)----|-----------------|-----------------|-----------------|
|-----------------|-----------------|-----------------|-----------------|

guitars 1&2:
pm....................................................................
|-----------------|-----------------|-----------------|-----------------|
|-----------------|-----------------|-----------------|-----------------|
|-----------------|-----------------|-----------------|-----------------|
|-----------------|-----------------|-----------------|-----------------|
|-3-3-3-6-6-6-5-5-|-3-3-3-6-6-6-5-5-|-3-3-3-6-6-6-5-5-|-3-3-3-6-6-6-5-5-|
|-1-1-1-4-4-4-3-3-|-1-1-1-4-4-4-3-3-|-1-1-1-4-4-4-3-3-|-1-1-1-4-4-4-3-3-|

guitars 1&2:
|-----------------|-----------------|-----------------|-----------------|
|-----------------|-----------------|-----------------|-----------------|
|-----------------|-----------------|-----------------|-----------------|(2x)
|-8---------------|-----------------|-----------------|-----------------|
|-6-(let ring)----|-----------------|-----------------|-----------------|
|-----------------|-----------------|-----------------|-----------------|


chorus:

guitar 1:
|-----------------|-----------------|-----------------|-----------------|
|-----------------|-----------------|-----------------|-----------------|
|-----------------|-----------------|-----------------|-----------------|(2x)
|-----------------|-----------------|-----------------|-----------------|
|-3-3-3-6-6-6-5-5-|-3-3-3-6-6-6-5-5-|-3-3-3-6-6-6-5-5-|-3-3-3-6-6-6-5-5-|
|-1-1-1-4-4-4-3-3-|-1-1-1-4-4-4-3-3-|-1-1-1-4-4-4-3-3-|-1-1-1-4-4-4-3-3-|

guitar 2:
|-----------------|-----------------|-----------------|-----------------|
|-----------------|-----------------|-----------------|-----------------|
|-----------------|-----------------|-----------------|-----------------|(2x)
|-7s10------------|-7s10------------|-7s10------------|-7s10------------|
|-------11-11-10--|-------11-11-10--|-------11-11-10--|-------11-11-10--|
|-----------------|-----------------|-----------------|-----------------|

guitars 1&2:
|-----------------|-----------------|-----------------|-----------------|
|-----------------|-----------------|-----------------|-----------------|
|-----------------|-----------------|-----------------|-----------------|(4x)
|-----------------|-----------------|-----------------|-----------------|
|-3-3-3-6-6-6-5-5-|-3-3-3-6-6-6-5-5-|-3-3-3-6-6-6-5-5-|-3-3-3-6-6-6-5-5-|
|-1-1-1-4-4-4-3-3-|-1-1-1-4-4-4-3-3-|-1-1-1-4-4-4-3-3-|-1-1-1-4-4-4-3-3-|

Chicosci - Shallow Graves клип