» » Chevelle - One Lonely Visitor аккорды

Chevelle - One Lonely Visitor аккорды

Chevelle - One Lonely Visitor аккорды и слова для гитары. Другие песни с аккордами исполнителя Chevelle.

--------------------------------------------------------------------------------
One Lonely Visitor-Chevelle
--------------------------------------------------------------------------------

Tabbed by: dustind
Band: Chevelle
Song: One Lonely Visitor
Tuneing: EADGBe


Intro/Verse/Outro
|---------------|
|---3-----3-----|
|---2-----4-----|
|---0-----4-----|
|---0-----1-----|
|---2----(0)----|

Chourus
|---------------|
|---3-----------|
|---2-----------|
|---0-----2-----|
|---0-----2-----|
|---2-----0-----|


Okay well thats the whole song 100%.
Email me if you have any suggestions at [email protected]

Chevelle - One Lonely Visitor клип